Guitaretab - guitar tabs
Song name
# A B C D E F G H I J K L M N O P Q R S T U V W X Y Z

Sponge Cola - Harapin tab

Title       : Harapin
Artist      : Sponge cola

Ear tabber  : ROGEM S. BATTUNG
Address     : Palawan St. Sampaloc Manila
E-mail add 1: Guitarizta_rogem@yahoo.com
Contact no  : 09103887102

School      : EARIST B.S. APPLIED PHYSICS-1
Time Elapsed: 
Date        : Dec 17 2006

this song is part of their new Album named Transit if you want the complete 
tabs of the Album just type in the "song name" inputbar "Transit"

"""makikita nyo naman name ko dun ehh qng sino gumawa"""

|==========================================================================|
|============================READ FIRST====================================|
|==========================================================================|

ROGEM -> sa mga chord user na Gusto matuto na gumamit ng tab my instruction
         send kyo ng message sa Friendster " Guitarizta_rogem@yahoo.com or 
         Email nyo ako Guitarizta_gem@yahoo.com sabihin nyo kung kailangan 
         nyo ng Instruction sa pagbasa ng Tab forward ko sa inyo T.y.

ROGEM -> Gumawa ako ng dalwang tunning n2 ung naka E-Stadard & naka Eb   
         gumawa ako nun para sa hindi pa marunong mag tono ng Eb-tunning..
         pero mas reccomend ko pa din Eb kc dun talaga nila ginawa ung song
         
ROGEM -> Dedicate ko ulit 2 sa lahat ng Friends ko lahat ng BS APPLIED 
         PHYSICS mga BS. COMPUTER SCIENCE mga BS. MATH at mga BS.PSYCHOLOGY 
         lahat ng taga C.A.S. at lahat ng taga EARIST hehehe

ROGEM -> any suggestion and Comment txt 09187229082 send kyo ng Msj sa 
         Friendster Guitarizta_rogem@yahoo.com


|==================================================|
|==================================================|
|						   |
|                     HARAPIN-E                    |
|						   |
|==================================================|
|==================================================|

Transcribed by: ROGEM S. BATTUNG
School        : EARIST B.S. APPLIED PHYSICS 
Time Elapsed  : 10:10-10:45
Date          : Dec 16 2006
Contact no    : 09103887102

INTRO

e|-2-2-2-2-2-2-2-2-2-2-2-2-2-2------------|
B|-4-4-4-4-4-4-4-4-4-4-4-4-4-4------------|
G|-4-4-4-4-4-4-4-4-4-4-4-4-4-4------------|
D|-4-4-4-4-4-4-4-4-4-4-4-4-4-4------------|
A|-2-2-2-2-2-2-2-2-2-2-2-2-2-2------------|
E|----------------------------------------|

VERSE I

    B      F#	   C#    C#9 C#   C       F#	  C#    C#9 C#
e|-2-2-2---2-2-2---4-4-4--4--4----2-2-2---2-2-2---4-4-4--4--4---|
B|-4-4-4---2-2-2---6-6-6--4--6----4-4-4---2-2-2---6-6-6--4--6---|
G|-4-4-4---3-3-3---6-6-6--6--6----4-4-4---3-3-3---6-6-6--6--6---|
D|-4-4-4---4-4-4---6-6-6--6--6----4-4-4---4-4-4---6-6-6--6--6---|
A|-2-2-2---4-4-4---4-4-4--4--4----2-2-2---4-4-4---4-4-4--4--4---|
E|---------2-2-2--------------------------2-2-2-----------------|
   B          F#     C#-C#9-c#   B  F#  C#-C#9------------------|c#
   Sa'n ka nakalingon, aking kaibigan

ROGEM - > d2 gumamit ako ng pang jazz chord na Em bahala kyo
          qng e2 gamitin nyo o gawin nyo nalang basic chord


   B       F#      C#     Ebm    B       F#      C#    C#9-C#
e|-2-2-2---2-2-2---4-4-4--3-3-3--2-2-2---2-2-2---4-4-4--4--4--|
B|-4-4-4---2-2-2---6-6-6--4-4-4--4-4-4---2-2-2---6-6-6--4--6--|
G|-4-4-4---3-3-3---6-6-6--3-3-3--4-4-4---3-3-3---6-6-6--6--6--|
D|-4-4-4---4-4-4---6-6-6--5-5-5--4-4-4---4-4-4---6-6-6--6--6--|
A|-2-2-2---4-4-4---4-4-4--6-6-6--2-2-2---4-4-4---4-4-4--4--4--|
E|---------2-2-2-------------------------2-2-2----------------|
 B          F#      C#    Ebm      B  F#  C#-C#9-C#
 Hanggang kailan mo ito balak na iwasan


    B      F#	   C#    C#9 C#   C       F#	  C#    C#9 C#
e|-2-2-2---2-2-2---4-4-4--4--4----2-2-2---2-2-2---4-4-4--4--4--------|
B|-4-4-4---2-2-2---6-6-6--4--6----4-4-4---2-2-2---6-6-6--4--6--------|
G|-4-4-4---3-3-3---6-6-6--6--6----4-4-4---3-3-3---6-6-6--6--6--------|
D|-4-4-4---4-4-4---6-6-6--6--6----4-4-4---4-4-4---6-6-6--6--6--------|
A|-2-2-2---4-4-4---4-4-4--4--4----2-2-2---4-4-4---4-4-4--4--4--------|
E|---------2-2-2--------------------------2-2-2----------------------|
B               F#        C#-C#9-C#   B             F#       C#-C#9--|C#
Ang panaho'y tumatakbong palayo Tagilid, pag-asa ng 'yong pagkakataong

   B       F#      C#     Ebm    B       F#      C#    C#9-C#
e|-2-2-2---2-2-2---4-4-4--3-3-3--2-2-2---2-2-2---4-4-4--4--4--|
B|-4-4-4---2-2-2---6-6-6--4-4-4--4-4-4---2-2-2---6-6-6--4--6--|
G|-4-4-4---3-3-3---6-6-6--3-3-3--4-4-4---3-3-3---6-6-6--6--6--|
D|-4-4-4---4-4-4---6-6-6--5-5-5--4-4-4---4-4-4---6-6-6--6--6--|
A|-2-2-2---4-4-4---4-4-4--6-6-6--2-2-2---4-4-4---4-4-4--4--4--|
E|---------2-2-2-------------------------2-2-2----------------|
      Lumaban sa agos at tumawid


CHORUS
    B      F#
e|-2-2-2--2-2-2--|
B|-4-4-4--2-2-2--|
G|-4-4-4--3-3-3--|3x
D|-4-4-4--4-4-4--|
A|-2-2-2--4-4-4--|
E|--------2-2-2--|
    B           F#        B      F#
O anong magagawa ng maling nag-aakala
     B             F#
Pagmasdan mo ang mukha

     Ebm      C#      B       F#
e|--3-3-3-3---4-4-4---2-2-2---2-2-2----|
B|--4-4-4-4---6-6-6---4-4-4---2-2-2----|
G|--3-3-3-3---6-6-6---4-4-4---3-3-3----|
D|--5-5-5-5---6-6-6---4-4-4---4-4-4----|
A|--6-6-6-6---4-4-4---2-2-2---4-4-4----|
E|----------------------------2-2-2----|
         Ebm         C#          B          F#
Ng kung sinong pinagpala't lagi nang nagtatanong

     B      F#
e|-2-2-2--2-2-2--|
B|-4-4-4--2-2-2--|
G|-4-4-4--3-3-3--|
D|-4-4-4--4-4-4--|
A|-2-2-2--4-4-4--|
E|--------2-2-2--|
     B             F#
Sa kasama, laging may binubulong

   B      F#      Ebm        C#     B
e|2-2-2---2-2-2---3-3-3-3---4-4-4---2-2-2------|
B|4-4-4---2-2-2---4-4-4-4---6-6-6---4-4-4------|
G|4-4-4---3-3-3---3-3-3-3---6-6-6---4-4-4------|
D|4-4-4---4-4-4---5-5-5-5---6-6-6---4-4-4------|
A|2-2-2---4-4-4---6-6-6-6---4-4-4---2-2-2------|
E|--------2-2-2--------------------------------|
B          F#      Ebm            C#     B
Handa ka bang harapin ang bukas na magaganap


VERSE II

    B      F#	   C#    C#9 C#   C       F#	  C#    C#9 C#
e|-2-2-2---2-2-2---4-4-4--4--4----2-2-2---2-2-2---4-4-4--4--4-|
B|-4-4-4---2-2-2---6-6-6--4--6----4-4-4---2-2-2---6-6-6--4--6-|
G|-4-4-4---3-3-3---6-6-6--6--6----4-4-4---3-3-3---6-6-6--6--6-|
D|-4-4-4---4-4-4---6-6-6--6--6----4-4-4---4-4-4---6-6-6--6--6-|
A|-2-2-2---4-4-4---4-4-4--4--4----2-2-2---4-4-4---4-4-4--4--4-|
E|---------2-2-2--------------------------2-2-2---------------|
Bakit lagi kang nag-aalinlangan


   B       F#      C#     Ebm    B       F#      C#    C#9-C#
e|-2-2-2---2-2-2---4-4-4--3-3-3--2-2-2---2-2-2---4-4-4--4--4--|
B|-4-4-4---2-2-2---6-6-6--4-4-4--4-4-4---2-2-2---6-6-6--4--6--|
G|-4-4-4---3-3-3---6-6-6--3-3-3--4-4-4---3-3-3---6-6-6--6--6--|
D|-4-4-4---4-4-4---6-6-6--5-5-5--4-4-4---4-4-4---6-6-6--6--6--|
A|-2-2-2---4-4-4---4-4-4--6-6-6--2-2-2---4-4-4---4-4-4--4--4--|
E|---------2-2-2-------------------------2-2-2----------------|
Wala ka naman laging dapat patunayan

     Ebm          C#
e|--3-3-3-3-3---4-4-4-4-4---|
B|--4-4-4-4-4---6-6-6-6-6---|
G|--3-3-3-3-3---6-6-6-6-6---|
D|--5-5-5-5-5---6-6-6-6-6---|
A|--6-6-6-6-6---4-4-4-4-4---|
E|--------------------------|
Lilinaw din ang himpapawid
     Ebm          C#
e|--3-3-3-3-3---4-4-4-4-4---|
B|--4-4-4-4-4---6-6-6-6-6---|
G|--3-3-3-3-3---6-6-6-6-6---|
D|--5-5-5-5-5---6-6-6-6-6---|
A|--6-6-6-6-6---4-4-4-4-4---|
E|--------------------------|
May nakalaang daang matuwid

     Ebm          C#        B
e|--3-3-3-3-3---4-4-4-4-4---2-2-2-2-2-|
B|--4-4-4-4-4---6-6-6-6-6---4-4-4-4-4-|
G|--3-3-3-3-3---6-6-6-6-6---4-4-4-4-4-|
D|--5-5-5-5-5---6-6-6-6-6---4-4-4-4-4-|
A|--6-6-6-6-6---4-4-4-4-4---2-2-2-2-2-|
E|------------------------------------|
Makikita mo sa wakas kung anong dahilan


SOLO

      Ebm     C#       B       F#       Ebm      C#       B

e|------------------------------------------------------9--11-----|
B|--6h7------6----------------------------------------------------|
G|-------------6-----4/8----6------3/6-6----/8--11--11------------|
D|----------------------------8-----------------------------------|
A|----------------------------------------------------------------|
E|----------------------------------------------------------------|

          Ebm     C#       B       F#       Ebm      C#       B

e|----------------------------------------------------9----7--6--4--2--|
B|--6-7------6-------------------------6-------------------------------|
G|-------------6-----4/8---6--------3/6-6----6--6----------------------|
D|--------------------------8-6-4-6------------------------------------|
A|---------------------------------------------------------------------|
E|---------------------------------------------------------------------|


CHORUS
    B      F#
e|-2-2-2--2-2-2--|
B|-4-4-4--2-2-2--|
G|-4-4-4--3-3-3--|3x
D|-4-4-4--4-4-4--|
A|-2-2-2--4-4-4--|
E|--------2-2-2--|
    B           F#        B      F#
O anong magagawa ng maling nag-aakala
     B            F#
Pagmasdan mo ang mukha


     Ebm      C#      B       F#
e|--3-3-3-3---4-4-4---2-2-2---2-2-2----|
B|--4-4-4-4---6-6-6---4-4-4---2-2-2----|
G|--3-3-3-3---6-6-6---4-4-4---3-3-3----|
D|--5-5-5-5---6-6-6---4-4-4---4-4-4----|
A|--6-6-6-6---4-4-4---2-2-2---4-4-4----|
E|----------------------------2-2-2----|
Ng kung sinong pinagpala't lagi nang nagtatanong

    B      F#
e|-2-2-2--2-2-2--|
B|-4-4-4--2-2-2--|
G|-4-4-4--3-3-3--|
D|-4-4-4--4-4-4--|
A|-2-2-2--4-4-4--|
E|--------2-2-2--|
Sa kasama, laging may binubulong

  B       F#      Ebm       C#
e|2-2-2---2-2-2---3-3-3-3---4-4-4----|
B|4-4-4---2-2-2---4-4-4-4---6-6-6----|
G|4-4-4---3-3-3---3-3-3-3---6-6-6----|
D|4-4-4---4-4-4---5-5-5-5---6-6-6----|
A|2-2-2---4-4-4---6-6-6-6---4-4-4----|
E|--------2-2-2----------------------|
Handa ka bang tumayo at maninindigan


    B      F#
e|-2-2-2--2-2-2--|
B|-4-4-4--2-2-2--|
G|-4-4-4--3-3-3--|3x
D|-4-4-4--4-4-4--|
A|-2-2-2--4-4-4--|
E|--------2-2-2--|
    B           F#        B      F#
O anong magagawa ng maling nag-aakala
     B             F#
Pagmasdan mo ang mukha

     Ebm      C#      B       F#
e|--3-3-3-3---4-4-4---2-2-2---2-2-2----|
B|--4-4-4-4---6-6-6---4-4-4---2-2-2----|
G|--3-3-3-3---6-6-6---4-4-4---3-3-3----|
D|--5-5-5-5---6-6-6---4-4-4---4-4-4----|
A|--6-6-6-6---4-4-4---2-2-2---4-4-4----|
E|----------------------------2-2-2----|
Ng kung sinong pinagpala't lagi nang nagtatanong


    B      F#
e|-2-2-2--2-2-2--|
B|-4-4-4--2-2-2--|
G|-4-4-4--3-3-3--|
D|-4-4-4--4-4-4--|
A|-2-2-2--4-4-4--|
E|--------2-2-2--|
Sa kasama, laging may binubulong

   B      F#      Ebm        C#     B
e|2-2-2---2-2-2---3-3-3-3---4-4-4---2-2-2------|
B|4-4-4---2-2-2---4-4-4-4---6-6-6---4-4-4------|
G|4-4-4---3-3-3---3-3-3-3---6-6-6---4-4-4------|
D|4-4-4---4-4-4---5-5-5-5---6-6-6---4-4-4------|
A|2-2-2---4-4-4---6-6-6-6---4-4-4---2-2-2------|
E|--------2-2-2--------------------------------|
Handa ka bang harapin ang bukas na magaganap
B
Harapin ang bukas na magaganap

ROGEM -> Dedicate ko ulit 2 sa lahat ng Friends ko lahat ng BS APPLIED 
         PHYSICS mga BS. COMPUTER SCIENCE mga BS. MATH at mga BS.PSYCHOLOGY 
         lahat ng taga C.A.S. at lahat ng taga EARIST hehehe
[ Tab from: http://www.guitaretab.com/s/sponge-cola/80893.html ]
ROGEM -> any suggestion and Comment txt 09103887102 send kyo ng Msj sa 
         Friendster Guitarizta_rogem@yahoo.com

|==========================================================================|
|==========================================================================|
|==========================================================================|

this song is part of their new Album named Transit if you want the complete 
tabs of the Album just type in the "song name" inputbar "Transit"

"""makikita nyo naman name ko dun ehh qng sino gumawa"""

|==========================================================================|
|==========================================================================|
|==========================================================================|

|==================================================|
|==================================================|
|						   |
|                     HARAPIN                      |
|						   |
|==================================================|
|==================================================|

Transcribed by: ROGEM S. BATTUNG
School        : EARIST B.S. APPLIED PHYSICS 
Time Elapsed  : 10:10-10:45
Date          : Dec 16 2006
Contact no    : 09103887102

ROGEM - >  pwd nyo gamitin khit anu sa dalawa na c formation sa verse 1
           land ha uulitin ko sa verse 1 lang

eb|--3-3-3-------3-3-3-------------------|
Bb|--1-1-1-------5-5-5-------------------|
Gb|--0-0-0---or--5-5-5-------------------|
Db|--2-2-2-------5-5-5-------------------|
Ab|--3-3-3-------3-3-3-------------------|
Eb|--------------------------------------|

INTRO

eb|-0-0-0-0-0-0-0-0-0-0-0-0-0-0------------|
Bb|-1-1-1-1-1-1-1-1-1-1-1-1-1-1------------|
Gb|-0-0-0-0-0-0-0-0-0-0-0-0-0-0------------|
Db|-2-2-2-2-2-2-2-2-2-2-2-2-2-2------------|
Ab|-3-3-3-3-3-3-3-3-3-3-3-3-3-3------------|
Eb|----------------------------------------|

VERSE I

    C       G	    D     D9       C       G	    D     D9
eb|-3-3-3---3-3-3---2-2-2--0--2----3-3-3---3-3-3---2-2-2--0--2-|
Bb|-1-1-1---3-3-3---3-3-3--3--3----1-1-1---3-3-3---3-3-3--3--3-|
Gb|-0-0-0---0-0-0---2-2-2--2--2----0-0-0---0-0-0---2-2-2--2--2-|
Db|-2-2-2---0-0-0---0-0-0--0--0----2-2-2---0-0-0---0-0-0--0--0-|
Ab|-3-3-3---2-2-2------------------3-3-3---2-2-2---------------|
Eb|---------3-3-3--------------------------3-3-3---------------|
   C          G     D         C  G  D
   Sa'n ka nakalingon, aking kaibigan


    C       G       D      Em     C       G       D
eb|-3-3-3---3-3-3---2-2-2--0-0-0--3-3-3---3-3-3---2-2-2--0--2--|
Bb|-1-1-1---3-3-3---3-3-3--0-0-0--1-1-1---3-3-3---3-3-3--3--3--|
Gb|-0-0-0---0-0-0---2-2-2--0-0-0--0-0-0---0-0-0---2-2-2--2--2--|
Db|-2-2-2---0-0-0---0-0-0--2-2-2--2-2-2---0-0-0---0-0-0--0--0--|
Ab|-3-3-3---2-2-2----------2-2-2--3-3-3---2-2-2----------------|
Eb|---------3-3-3----------0-0-0----------3-3-3----------------|
C          G        D    Em      C  G  D
Hanggang kailan mo ito balak na iwasan


   C       G	    D     D9       C       G	    D     D9
eb|-3-3-3---3-3-3---2-2-2--0--2----3-3-3---3-3-3---2-2-2--0--2-|
Bb|-1-1-1---3-3-3---3-3-3--3--3----1-1-1---3-3-3---3-3-3--3--3-|
Gb|-0-0-0---0-0-0---2-2-2--2--2----0-0-0---0-0-0---2-2-2--2--2-|
Db|-2-2-2---0-0-0---0-0-0--0--0----2-2-2---0-0-0---0-0-0--0--0-|
Ab|-3-3-3---2-2-2------------------3-3-3---2-2-2---------------|
Eb|---------3-3-3--------------------------3-3-3---------------|
C               G          D     C             G       D
Ang panaho'y tumatakbong palayo Tagilid, pag-asa ng 'yong pagkakataong

    C       G       D      Em     C       G       D
eb|-3-3-3---3-3-3---2-2-2--0-0-0--3-3-3---3-3-3---2-2-2--0--2--|
Bb|-1-1-1---3-3-3---3-3-3--0-0-0--1-1-1---3-3-3---3-3-3--3--3--|
Gb|-0-0-0---0-0-0---2-2-2--0-0-0--0-0-0---0-0-0---2-2-2--2--2--|
Db|-2-2-2---0-0-0---0-0-0--2-2-2--2-2-2---0-0-0---0-0-0--0--0--|
Ab|-3-3-3---2-2-2----------2-2-2--3-3-3---2-2-2----------------|
Eb|---------3-3-3----------0-0-0----------3-3-3----------------|
C    G     D    Em   C  G  D
Lumaban sa agos at tumawid


CHORUS
    C      G
eb|-0-0-0--3-3-3--|
Bb|-1-1-1--3-3-3--|
Gb|-0-0-0--0-0-0--|3x
Db|-2-2-2--0-0-0--|
Ab|-3-3-3--2-2-2--|
Eb|--------3-3-3--|
    C           G        C      G
O anong magagawa ng maling nag-aakala
     C             G
Pagmasdan mo ang mukha

     Em        D       C       G
eb|--0-0-0-0---2-2-2---0-0-0---3-3-3----|
Bb|--0-0-0-0---3-3-3---1-1-1---3-3-3----|
Gb|--0-0-0-0---2-2-2---0-0-0---0-0-0----|
Db|--2-2-2-2---0-0-0---2-2-2---0-0-0----|
Ab|--2-2-2-2-----------3-3-3---2-2-2----|
Eb|--0-0-0-0-------------------3-3-3----|
         Em          D           C          G
Ng kung sinong pinagpala't lagi nang nagtatanong

    C      G
eb|-0-0-0--3-3-3--|
Bb|-1-1-1--3-3-3--|
Gb|-0-0-0--0-0-0--|
Db|-2-2-2--0-0-0--|
Ab|-3-3-3--2-2-2--|
Eb|--------3-3-3--|
     C             G
Sa kasama, laging may binubulong

   C       G       Em        D       C
eb|0-0-0---3-3-3---0-0-0-0---2-2-2---0-0-0------|
Bb|1-1-1---3-3-3---0-0-0-0---3-3-3---1-1-1------|
Gb|0-0-0---0-0-0---0-0-0-0---2-2-2---0-0-0------|
Db|2-2-2---0-0-0---2-2-2-2---0-0-0---2-2-2------|
Ab|3-3-3---2-2-2---2-2-2-2-----------3-3-3------|
Eb|--------0-0-0---0-0-0-0----------------------|
C          G      Em            D     C
Handa ka bang harapin ang bukas na magaganap


VERSE II

    C       G	    D     D9       C       G	    D     D9
eb|-0-0-0---3-3-3---2-2-2--0--2----0-0-0---3-3-3---2-2-2--0--2-|
Bb|-1-1-1---3-3-3---3-3-3--3--3----1-1-1---3-3-3---3-3-3--3--3-|
Gb|-0-0-0---0-0-0---2-2-2--2--2----0-0-0---0-0-0---2-2-2--2--2-|
Db|-2-2-2---0-0-0---0-0-0--0--0----2-2-2---0-0-0---0-0-0--0--0-|
Ab|-3-3-3---2-2-2------------------3-3-3---2-2-2---------------|
Eb|---------3-3-3--------------------------3-3-3---------------|
C      G    D          C  G  D
Bakit lagi kang nag-aalinlangan


    C       G       D      Em     C       G       D
eb|-0-0-0---3-3-3---2-2-2--0-0-0--0-0-0---3-3-3---2-2-2--0--2--|
Bb|-1-1-1---3-3-3---3-3-3--0-0-0--1-1-1---3-3-3---3-3-3--3--3--|
Gb|-0-0-0---0-0-0---2-2-2--0-0-0--0-0-0---0-0-0---2-2-2--2--2--|
Db|-2-2-2---0-0-0---0-0-0--2-2-2--2-2-2---0-0-0---0-0-0--0--0--|
Ab|-3-3-3---2-2-2----------2-2-2--3-3-3---2-2-2----------------|
Eb|---------3-3-3----------0-0-0----------3-3-3----------------|
C         G     D        Em   C  G  D
Wala ka naman laging dapat patunayan

     Em          D
eb|--0-0-0-0-0---2-2-2-2-2---|
Bb|--0-0-0-0-0---3-3-3-3-3---|
Gb|--0-0-0-0-0---2-2-2-2-2---|
Db|--2-2-2-2-2---0-0-0-0-0---|
Ab|--2-2-2-2-2---------------|
Eb|--0-0-0-0-0---------------|
Em                D
Lilinaw din ang himpapawid
     Em          G
eb|--0-0-0-0-0---3-3-3-3-3---|
Bb|--0-0-0-0-0---3-3-3-3-3---|
Gb|--0-0-0-0-0---0-0-0-0-0---|
Db|--2-2-2-2-2---0-0-0-0-0---|
Ab|--2-2-2-2-2---2-2-2-2-2---|
Eb|--0-0-0-0-0---3-3-3-3-3---|
Em               G
May nakalaang daang matuwid

     Em          D           C
eb|--0-0-0-0-0---2-2-2-2-2---0-0-0-0-0-|
Bb|--0-0-0-0-0---3-3-3-3-3---1-1-1-1-1-|
Gb|--0-0-0-0-0---2-2-2-2-2---0-0-0-0-0-|
Db|--2-2-2-2-2---0-0-0-0-0---2-2-2-2-2-|
Ab|--2-2-2-2-2---------------3-3-3-3-3-|
Eb|--0-0-0-0-0-------------------------|
Em              D                  C
Makikita mo sa wakas kung anong dahilan


SOLO

      Em     D       C       G       Em      D       C

eb|-----------------------------------------------------10--12-----|
Bb|--7h8------7----------------------------------------------------|
Gb|-------------7-----5/9----7------4/7-7----/9--12--12------------|
Db|----------------------------9-----------------------------------|
Ab|----------------------------------------------------------------|
Eb|----------------------------------------------------------------|

      Em     D       C       G       Em      D       C

eb|---------------------------------------------------10----8--7--5--3--|
Bb|--7-8------7-------------------------7-------------------------------|
Gb|-------------7-----5/9---7--------4/7-7----7--7----------------------|
Db|--------------------------9-7-5-7------------------------------------|
Ab|---------------------------------------------------------------------|
Eb|---------------------------------------------------------------------|


CHORUS
    C      G
eb|-0-0-0--3-3-3--|
Bb|-1-1-1--3-3-3--|
Gb|-0-0-0--0-0-0--|3x
Db|-2-2-2--0-0-0--|
Ab|-3-3-3--2-2-2--|
Eb|--------3-3-3--|
    C           G        C      G
O anong magagawa ng maling nag-aakala
     C             G
Pagmasdan mo ang mukha


     Em        D       C       G
eb|--0-0-0-0---2-2-2---0-0-0---3-3-3----|
Bb|--0-0-0-0---3-3-3---1-1-1---3-3-3----|
Gb|--0-0-0-0---2-2-2---0-0-0---0-0-0----|
Db|--2-2-2-2---0-0-0---2-2-2---0-0-0----|
Ab|--2-2-2-2-----------3-3-3---2-2-2----|
Eb|--0-0-0-0-------------------3-3-3----|
         Em          D           C          G
Ng kung sinong pinagpala't lagi nang nagtatanong

    C      G
eb|-0-0-0--3-3-3--|
Bb|-1-1-1--3-3-3--|
Gb|-0-0-0--0-0-0--|
Db|-2-2-2--0-0-0--|
Ab|-3-3-3--2-2-2--|
Eb|--------3-3-3--|
     C             G
Sa kasama, laging may binubulong

   C       G       Em        D
eb|0-0-0---3-3-3---0-0-0-0---2-2-2----|
Bb|1-1-1---3-3-3---0-0-0-0---3-3-3----|
Gb|0-0-0---0-0-0---0-0-0-0---2-2-2----|
Db|2-2-2---0-0-0---2-2-2-2---0-0-0----|
Ab|3-3-3---2-2-2---2-2-2-2------------|
Eb|--------0-0-0---0-0-0-0------------|
C          G      Em         D
Handa ka bang tumayo at maninindigan

    C      G
eb|-0-0-0--3-3-3--|
Bb|-1-1-1--3-3-3--|
Gb|-0-0-0--0-0-0--|3x
Db|-2-2-2--0-0-0--|
Ab|-3-3-3--2-2-2--|
Eb|--------3-3-3--|
    C           G        C      G
O anong magagawa ng maling nag-aakala
     C             G
Pagmasdan mo ang mukha

     Em        D       C       G
eb|--0-0-0-0---2-2-2---0-0-0---3-3-3----|
Bb|--0-0-0-0---3-3-3---1-1-1---3-3-3----|
Gb|--0-0-0-0---2-2-2---0-0-0---0-0-0----|
Db|--2-2-2-2---0-0-0---2-2-2---0-0-0----|
Ab|--2-2-2-2-----------3-3-3---2-2-2----|
Eb|--0-0-0-0-------------------3-3-3----|
         Em          D           C          G
Ng kung sinong pinagpala't lagi nang nagtatanong


    C      G
eb|-0-0-0--3-3-3--|
Bb|-1-1-1--3-3-3--|
Gb|-0-0-0--0-0-0--|
Db|-2-2-2--0-0-0--|
Ab|-3-3-3--2-2-2--|
Eb|--------3-3-3--|
     C             G
Sa kasama, laging may binubulong

   C       G       Em        D       C
eb|0-0-0---3-3-3---0-0-0-0---2-2-2---0-0-0------|
Bb|1-1-1---3-3-3---0-0-0-0---3-3-3---1-1-1------|
Gb|0-0-0---0-0-0---0-0-0-0---2-2-2---0-0-0------|
Db|2-2-2---0-0-0---2-2-2-2---0-0-0---2-2-2------|
Ab|3-3-3---2-2-2---2-2-2-2-----------3-3-3------|
Eb|--------0-0-0---0-0-0-0----------------------|
C          G      Em            D        C
Handa ka bang harapin ang bukas na magaganap
C
Harapin ang bukas na magaganap

ROGEM -> Dedicate ko ulit 2 sa lahat ng Friends ko lahat ng BS APPLIED 
         PHYSICS mga BS. COMPUTER SCIENCE mga BS. MATH at mga BS.PSYCHOLOGY 
         lahat ng taga C.A.S. at lahat ng taga EARIST hehehe

ROGEM -> any suggestion and Comment txt 09103887102 send kyo ng Msj sa 
         Friendster Guitarizta_rogem@yahoo.com

this song is part of their new Album named Transit if you want the complete 
tabs of the Album just type in the "song name" inputbar "Transit"

"""makikita nyo naman name ko dun ehh qng sino gumawa"""
Related for Harapin tab
Harapin chords by Sponge Cola