Song name
# A B C D E F G H I J K L M N O P Q R S T U V W X Y Z

Sponge Cola - My Self In You tab

Help us improve GuitareTab! Take a short survey!
Title       : My Self In You
Artist      : Sponge cola

Ear tabber  : ROGEM S. BATTUNG
Address     : Palawan St. Sampaloc Manila
E-mail add 1: Guitarizta_rogem@yahoo.com
Contact no  : 09103887102

School      : EARIST B.S. APPLIED PHYSICS-1
Time Elapsed: 2:30-3:10 am
Date        : Dec 16 2006

this song is part of their new Album named Transit if you want the complete 
tabs of the Album just type in the "song name" inputbar "Transit"

"""makikita nyo naman name ko dun ehh qng sino gumawa"""

|==========================================================================|
|============================READ FIRST====================================|
|==========================================================================|

ROGEM -> sa mga chord user na Gusto matuto na gumamit ng tab my instruction
         send kyo ng message sa Friendster " Guitarizta_rogem@yahoo.com or 
         Email nyo ako Guitarizta_gem@yahoo.com sabihin nyo kung kailangan 
         nyo ng Instruction sa pagbasa ng Tab forward ko sa inyo T.y.

ROGEM -> Gumawa ako ng dalwang tunning n2 ung naka E-Stadard & naka Eb   
         gumawa ako nun para sa hindi pa marunong mag tono ng Eb-tunning..
         pero mas reccomend ko pa din Eb kc dun talaga nila ginawa ung song
         
ROGEM -> Dedicate ko ulit 2 sa lahat ng Friends ko lahat ng BS APPLIED 
         PHYSICS mga BS. COMPUTER SCIENCE mga BS. MATH at mga BS.PSYCHOLOGY 
         lahat ng taga C.A.S. at lahat ng taga EARIST hehehe

ROGEM -> any suggestion and Comment txt 09103887102 send kyo ng Msj sa 
         Friendster Guitarizta_rogem@yahoo.com


|==================================================|
|==================================================|
|						   |
|                MY SELF IN YOU-E                  |
|						   |
|==================================================|
|==================================================|

Transcribed by: ROGEM S. BATTUNG
School        : EARIST B.S. APPLIED PHYSICS 
Time Elapsed  : 2:30-3:10 am
Date          : Dec 17 2006
Contact no    : 09103887102

INTRO

GTR I
e|----------------------------------------------------------------|
B|----------------------------------------------------------------|
G|--4--5---7---9----4--4--5---7---9---4--4--5---7---9--5-5---4-4--|
D|--4--4---8---9----4--4--4---8---9---4--4--4---8---9--6-6---4-4--|4x
A|-----------------------------------------------------6-6---4-4--|
E|----------------------------------------------------------------|

GTR II pasok 2 sa 2nd round pagkastapos n2 ung Round 3 naman
e|----------------------------------------------------------------|
B|----------------------------------------------------------------|
G|---------------3s4--------------3s4-----------------------------|
D|----------------------------------------------------------------|
A|----------------------------------------------------------------|
E|----------------------------------------------------------------|

GTR II 3rd Round
e|--------------4-----------------4-----------------4--55555555---|
B|--4h5-4h5-4h5-5-----4h5-4h5-4h5-5-----4h5-4h5-4h5-5--55555555---|
G|44----------------44----------------44--------------------------|2x
D|----------------------------------------------------------------|
A|----------------------------------------------------------------|
E|----------------------------------------------------------------|

VERSE I

ROGEM - e2 gagamitin nyo dun sa Verse ha sa
	bawat chord gagawin 2 ng GTR I hindi
	GTR II
GTR I
    E           C#m        G#m         A
e|----------|----------|----------|------0---|
B|-5--------|--5-------|-----4----|----2-----|
G|-4--------|--6-------|----4-----|--2-------|2x
D|-2--------|--6-------|---6------|----------|
A|----------|----------|----------|-0--------|
E|----------|----------|--4-------|----------|
I'll find a way to come home to you
Tomorrows not that far away


GTR I
    E           C#m        G#m         A
e|----------|----------|----------|------0---|
B|-5--------|--5-------|-----4----|----2-----|
G|-4--------|--6-------|----4-----|--2-------|
D|-2--------|--6-------|---6------|----------|
A|----------|----------|----------|-0--------|
E|----------|----------|--4-------|----------|
GTR II
    E           C#m        G#m         A
e|-7s12-----|----------|-7-7------|----------|
B|----------|----------|--7-7-----|----------|
G|----------|----------|----------|----------|
D|----------|----------|----------|----------|
A|----------|----------|----------|----------|
E|----------|----------|----------|----------|
I kiss your lips in my head, every night


GTR I
    E           C#m        G#m         A
e|----------|----------|----------|------0---|
B|-5--------|--5-------|-----4----|----2-----|
G|-4--------|--6-------|----4-----|--2-------|
D|-2--------|--6-------|---6------|----------|
A|----------|----------|----------|-0--------|
E|----------|----------|--4-------|----------|
GTR II
   E           C#m        G#m         A
e|-7s12-----|----------|-7-7------|--12-12-12|
B|----------|----------|--7-7-----|--12-12-12|
G|----------|----------|----------|----------|
D|----------|----------|----------|----------|
A|----------|----------|----------|----------|
E|----------|----------|----------|----------|
  I dream about the endless fire, the flaming sky


REFRAIN

GTR I
   G#m	      A	       F#m       B
e|-44444--|-00000--|-22222--|-22222--|
B|-44444--|-22222--|-22222--|-44444--|
G|-44444--|-22222--|-22222--|-44444--|
D|-66666--|-22222--|-44444--|-44444--|
A|-66666--|-00000--|-44444--|-22222--|
E|-44444--|-xxxxx--|-22222--|-xxxxx--|
GTR II
e|---9----|--------|----9-11|--------|
B|9------9|--------|-9------|--------|
G|--------|--------|--------|--------|
Find me, coz im lost in this reality

GTR I
    G#m	      A	       F#m       B
e|-44444--|-00000--|-22222--|-22222--|
B|-44444--|-22222--|-22222--|-44444--|
G|-44444--|-22222--|-22222--|-44444--|
D|-66666--|-22222--|-44444--|-44444--|
A|-66666--|-00000--|-44444--|-22222--|
E|-44444--|-xxxxx--|-22222--|-xxxxx--|
GTR II
e|---9----|--------|----9-11|--11(8x)|
B|9------9|--------|-9------|--------|
G|--------|--------|--------|--------|
Find me, coz ill let you, ill let you


CHORUS
GTR I
    A	      G#m	    B
e|-000000-|-444444-|-----22222222----|
B|-222222-|-444444-|-----44444444----|
G|-222222-|-444444-|-----44444444----|2x
D|-222222-|-666666-|-----44444444----|
A|-000000-|-666666-|-----22222222----|
E|--------|-444444-|-----------------|
GTR II
e|7-7-7-7\|-7/9\7--|-12-12-12-12---12-12-12-12-|
B|--------|-7/9\7--|-12-12-12-12---12-12-12-12-|
G|--------|--------|---------------------------|
A G#m        B
I    just want to say, please just stay with me
I     am not ashamed to be the same with you

GTR I
    A	    G#m      C#m      F#m     A      B
e|-00000-|-44444-|-44444-|-22222-|-00000-|-2222-|
B|-22222-|-44444-|-55555-|-22222-|-22222-|-4444-|
G|-22222-|-44444-|-66666-|-22222-|-22222-|-4444-|
D|-22222-|-66666-|-66666-|-44444-|-22222-|-4444-|
A|-00000-|-66666-|-44444-|-44444-|-00000-|-2222-|
E|-------|-44444-|-------|-22222-|-------|------|
GTR II
e|-----4-|-------|2-2-2-2|4-4-4-4|-------|---7--|-------|
B|-5-7---|-------|3-3-3-3|5-5-5-5|-------|-7-7-7|5555555|
G|-------|-------|-------|-------|-------|------|-------|
    A-G#m  	   C#m-F#m 		A-B
    I      	   I     	I find myself in you


INTERLUDE

GTR I
e|----------------------------------------------------------------|
B|----------------------------------------------------------------|
G|--4--5---7---9----4--4--5---7---9---4--4--5---7---9--5-5---4-4--|
D|--4--4---8---9----4--4--4---8---9---4--4--4---8---9--6-6---4-4--|2x
A|-----------------------------------------------------6-6---4-4--|
E|----------------------------------------------------------------|
GTR II pasok sa 2nd Round
e|--------------4-----------------4-----------------4--55555555---|
B|--4h5-4h5-4h5-5-----4h5-4h5-4h5-5-----4h5-4h5-4h5-5--55555555---|
G|44----------------44----------------44--------------------------|
D|----------------------------------------------------------------|
A|----------------------------------------------------------------|
E|----------------------------------------------------------------|

GTR I
    E           C#m        G#m         A
e|----------|----------|----------|------0---|
B|-5--------|--5-------|-----4----|----2-----|
G|-4--------|--6-------|----4-----|--2-------|4x
D|-2--------|--6-------|---6------|----------|
A|----------|----------|----------|-0--------|
E|----------|----------|--4-------|----------|


E          C#m          G#m         A
Ive sat before on the floor of my room
E             C#m             G#m             A
I always thought that it would be like this real soon

E             C#m            G#m              A
But now your here, nothing to fear with those eyes
E             C#m            G#m              A
I cant explain why i grow weak when you look into mine


REFRAIN

GTR I
   G#m	      A	       F#m       B
e|-44444--|-00000--|-22222--|-22222--|
B|-44444--|-22222--|-22222--|-44444--|
G|-44444--|-22222--|-22222--|-44444--|
D|-66666--|-22222--|-44444--|-44444--|
A|-66666--|-00000--|-44444--|-22222--|
E|-44444--|-xxxxx--|-22222--|-xxxxx--|
GTR II
e|---9----|--------|----9-11|--------|
B|9------9|--------|-9------|--------|
G|--------|--------|--------|--------|
G#m      A        F#m            B
Find me, coz im lost in this reality


GTR I
   G#m	      A	       F#m       B
e|-44444--|-00000--|-22222--|-22222--|
B|-44444--|-22222--|-22222--|-44444--|
G|-44444--|-22222--|-22222--|-44444--|
D|-66666--|-22222--|-44444--|-44444--|
A|-66666--|-00000--|-44444--|-22222--|
E|-44444--|-xxxxx--|-22222--|-xxxxx--|
GTR II
e|---9----|--------|----9-11|--------|
B|9------9|--------|-9------|--------|
G|--------|--------|--------|--------|
G#m      A        F#m            B
Find me, coz ill let you, ill let you

CHORUS
GTR I
    A	      G#m	    B
e|-000000-|-444444-|-----22222222----|
B|-222222-|-444444-|-----44444444----|
G|-222222-|-444444-|-----44444444----|2x
D|-222222-|-666666-|-----44444444----|
A|-000000-|-666666-|-----22222222----|
E|--------|-444444-|-----------------|
GTR II
e|7-7-7-7\|-7/9\7--|-12-12-12-12---12-12-12-12-|
B|--------|-7/9\7--|-12-12-12-12---12-12-12-12-|
G|--------|--------|---------------------------|

A G#m       B
I    just want to say, please just stay with me
I     am not ashamed to be the same with you

GTR I
    A	    G#m      C#m      F#m     A      B
e|-00000-|-44444-|-44444-|-22222-|-00000-|-2222-|
B|-22222-|-44444-|-55555-|-22222-|-22222-|-4444-|
G|-22222-|-44444-|-66666-|-22222-|-22222-|-4444-|
D|-22222-|-66666-|-66666-|-44444-|-22222-|-4444-|
A|-00000-|-66666-|-44444-|-44444-|-00000-|-2222-|
E|-------|-44444-|-------|-22222-|-------|------|

e|-----4-|-------|-------|-------|-------|------|
B|-5-7---|-------|-------|-------|-------|-5(7x)|
G|-------|-------|-------|-------|-------|------|
    A-G#m  	   C#m-F#m 		A-B
    I      	   I     	I find myself in you


ROGEM - d2 sa interlude medyo pinag dikit2x ko na ung
        sa 14 & 12 fourteen and twelve un hindi
        1,4 & 1,2

INTERLUDE GTR I - E C#m G#m A (2x)
GTR II part 1
e|-7-999--7-7-7--999--7-7-7--999--7-7-7--999----------------------|
B|-7-777--7-7-7--777--7-7-7--777--7-7-7--777----------------------|
G|----------------------------------------------------------------|
D|----------------------------------------------------------------|
A|----------------------------------------------------------------|
E|----------------------------------------------------------------|
GTR II part 2
e|--121212-141414--121212-141414-121212-141414--121212-141414-----|
B|--121212-121212--121212-121212-121212-121212--121212-112121-----|
G|----------------------------------------------------------------|
D|----------------------------------------------------------------|
A|----------------------------------------------------------------|
E|----------------------------------------------------------------|
repeat GTR II part 1 & part 2 tapos 2ng nasa baba play nyo
GTR II
e|-14-14-14-14-14-14-14-14-14-14-14-14-14-14----------------------|
B|----------------------------------------------------------------|

CHORUS
GTR I
    A	     G#m	     B
e|-000000-|-444444-|-----22222222----|
B|-222222-|-444444-|-----44444444----|
G|-222222-|-444444-|-----44444444----|
D|-222222-|-666666-|-----44444444----|
A|-000000-|-666666-|-----22222222----|
E|--------|-444444-|-----xxxxxxxx----|
GTR II
e|------7-|----9--7|------12-12-12-12|
B|--5-7---|5-7-----|---10------------|
G|--------|--------|-9---------------|
A-G#m        B
I    just want to say, please just stay with me

GTR I
    A	     G#m	     B
e|-000000-|-444444-|-----22222222----|
B|-222222-|-444444-|-----44444444----|
G|-222222-|-444444-|-----44444444----|
D|-222222-|-666666-|-----44444444----|
A|-000000-|-666666-|-----22222222----|
E|--------|-444444-|-----xxxxxxxx----|
GTR II
e|------7-|-----9-7|------12-12-12-12|
B|--5-7---|5-7-----|---10-10-10-10-10|
G|--------|--------|--9--------------|
 A-G#m     B
I    am not ashamed to be the same with you

GTR I
     A	    G#m      C#m      F#m     A      B
e|-00000-|-44444-|-44444-|-22222-|-00000-|-2222-|
B|-22222-|-44444-|-55555-|-22222-|-22222-|-4444-|
G|-22222-|-44444-|-66666-|-22222-|-22222-|-4444-|
D|-22222-|-66666-|-66666-|-44444-|-22222-|-4444-|
A|-00000-|-66666-|-44444-|-44444-|-00000-|-2222-|
E|-------|-44444-|-------|-22222-|-------|-xxxx-|
GTR II

e|5-5-5-5|7-7-7-7|9-9-9-9|12-12-12-12|5-5-5-5|7-7-7-7|-12(4x)-|
B|5-5-5-5|7-7-7-7|9-9-9-9|10-10-10-10|5-5-5-5|7-7-7-7|--------|
G|-------|-------|-------|-----------|-------|-------|--------|
A-G#m  C#m-F#m A-B
I      I    I find myself in you

OUTRO
GTR I-
e|----------------------------------------------------------------|
B|----------------------------------------------------------------|
G|--4--5---7----9---4--4--5---7---9---4--4--5---7---9-------------|
D|--4--4---8----9---4--4--4---8---9---4--4--4---8---9-------------|
A|----------------------------------------------------------------|
E|----------------------------------------------------------------|
GTR II
e|--------------4-----------------4-----------------4--44444444---|
B|--4h5-4h5-4h5-5-----4h5-4h5-4h5-5-----4h5-4h5-4h5-5--55555555---|
G|44----------------44----------------44--------------------------|
D|----------------------------------------------------------------|
A|----------------------------------------------------------------|
E|----------------------------------------------------------------|

---E----

ROGEM -> any suggestion and Comment txt 09103887102 send kyo ng Msj sa 
         Friendster Guitarizta_rogem@yahoo.com

|==========================================================================|
|==========================================================================|
|==========================================================================|

this song is part of their new Album named Transit if you want the complete 
tabs of the Album just type in the "song name" inputbar "Transit"

"""makikita nyo naman name ko dun ehh qng sino gumawa"""



|==================================================|
|==================================================|
|						   |
|                MY SELF IN YOU                    |
|						   |
|==================================================|
|==================================================|

Transcribed by: ROGEM S. BATTUNG
School        : EARIST B.S. APPLIED PHYSICS 
Time Elapsed  : 2:30-3:10 am
Date          : Dec 17 2006
Contact no    : 09103887102


INTRO
GTR I
eb|----------------------------------------------------------------|
Bb|----------------------------------------------------------------|
Gb|--5--6---8---10---5--5--6---8--10---5--5--6---8--10--6-6---5-5--|
Db|--5--5---9---10---5--5--5---9--10---5--5--5---9--10--7-7---5-5--|4x
Ab|-----------------------------------------------------7-7---5-5--|
Eb|----------------------------------------------------------------|

GTR II pasok 2 sa 2nd round pagkastapos n2 ung Round 3 naman
eb|----------------------------------------------------------------|
Bb|----------------------------------------------------------------|
Gb|---------------4s5--------------4s5-----------------------------|
Db|----------------------------------------------------------------|
Ab|----------------------------------------------------------------|
Eb|----------------------------------------------------------------|

GTR II 3rd Round
eb|--------------5-----------------5-----------------5--55555555---|
Bb|--5h6-5h6-5h6-6-----5h6-5h6-5h6-6-----5h6-5h6-5h6-6--66666666---|
Gb|55----------------55----------------55--------------------------|2x
Db|----------------------------------------------------------------|
Ab|----------------------------------------------------------------|
Eb|----------------------------------------------------------------|

VERSE I

ROGEM - e2 gagamitin nyo dun sa Verse ha sa
	bawat chord gagawin 2 ng GTR I hindi
	GTR II
GTR I
     F           Dm        Am         Bb
eb|----------|----------|------0---|------1---|
Bb|-6--------|--6-------|----1-----|----3-----|
Gb|-5--------|--7-------|--2-------|--3-------|2x
Db|-3--------|--7-------|----------|----------|
Ab|----------|----------|-0--------|-1--------|
Eb|----------|----------|----------|----------|
F            Dm         Am       Bb
I'll find a way to come home to you

F          Dm           Am  Bb
Tomorrows not that far away


GTR I
    F           Dm        Am         Bb
eb|----------|----------|------0---|------1---|
Bb|-6--------|--6-------|----1-----|----3-----|
Gb|-5--------|--7-------|--2-------|--3-------|
Db|-3--------|--7-------|----------|----------|
Ab|----------|----------|-0--------|-1--------|
Eb|----------|----------|----------|----------|
GTR II
    F           Dm        Am          Bb
eb|-8s13-----|----------|-8-8------|----------|
Bb|----------|----------|--8-8-----|----------|
Gb|----------|----------|----------|----------|
Db|----------|----------|----------|----------|
Ab|----------|----------|----------|----------|
Eb|----------|----------|----------|----------|
F            Dm         Am          Bb
I kiss your lips in my head, every night

GTR I
    F           Dm        Am         Bb
eb|----------|----------|------0---|------1---|
Bb|-6--------|--6-------|----1-----|----3-----|
Gb|-5--------|--7-------|--2-------|--3-------|
Db|-3--------|--7-------|----------|----------|
Ab|----------|----------|-0--------|-1--------|
Eb|----------|----------|----------|----------|
GTR II
    F           Dm        Am          Bb
eb|-8s13-----|----------|-8-8------|--13-13-13|
Bb|----------|----------|--8-8-----|--13-13-13|
Gb|----------|----------|----------|----------|
Db|----------|----------|----------|----------|
Ab|----------|----------|----------|----------|
Eb|----------|----------|----------|----------|
F          Dm               Am               Bb
I dream about the endless fire, the flaming sky


REFRAIN

GTR I
   Am	     Bb	      Gm       C
eb|-00000--|-11111--|-33333--|-00000--|
Bb|-11111--|-33333--|-33333--|-11111--|
Gb|-22222--|-33333--|-33333--|-00000--|
Db|-22222--|-33333--|-55555--|-22222--|
Ab|-00000--|-11111--|-55555--|-33333--|
Eb|-xxxxx--|-xxxxx--|-33333--|-xxxxx--|
GTR II
eb|---10---|--------|---10-12|--------|
Bb|10----10|--------|10------|--------|
Gb|--------|--------|--------|--------|
Am     Bb        Gm             C
Find me, coz im lost in this reality

   Am	     Bb	      Gm       C
eb|-00000--|-11111--|-33333--|-00000--|
Bb|-11111--|-33333--|-33333--|-11111--|
Gb|-22222--|-33333--|-33333--|-00000--|
Db|-22222--|-33333--|-55555--|-22222--|
Ab|-00000--|-11111--|-55555--|-33333--|
Eb|-xxxxx--|-xxxxx--|-33333--|-xxxxx--|
GTR II
eb|---10---|--------|---10-12|-12(8x)-|
Bb|10----10|--------|10------|--------|
Gb|--------|--------|--------|--------|
Am     Bb        Gm             C
Find me, coz ill let you, ill let you


CHORUS
GTR I
    Bb	     Am		C
eb|-111111-|-000000-|-----00000000----|
Bb|-333333-|-111111-|-----11111111----|
Gb|-333333-|-222222-|-----00000000----|2x
Db|-333333-|-222222-|-----22222222----|
Ab|-111111-|-000000-|-----33333333----|
Eb|--------|--------|-----------------|
GTR II
eb|8-8-8-8\|-8/10\8-|-13-13-13-13---13-13-13-13-|
Bb|--------|-8/10\8-|-13-13-13-13---13-13-13-13-|
Gb|--------|--------|---------------------------|
Bb Am        C
I    just want to say, please just stay with me
I     am not ashamed to be the same with you

GTR I
    Bb	    Am      Dm      Gm      Bb      C
eb|-11111-|-00000-|-11111-|-33333-|-11111-|-0000-|
Bb|-33333-|-11111-|-33333-|-33333-|-33333-|-1111-|
Gb|-33333-|-22222-|-22222-|-33333-|-33333-|-0000-|
Db|-33333-|-22222-|-00000-|-55555-|-33333-|-2222-|
Ab|-11111-|-00000-|-------|-55555-|-11111-|-3333-|
Eb|-------|-------|-------|-33333-|-------|------|
GTR II
eb|-----5-|-------|3-3-3-3|5-5-5-5|-------|---8--|-------|
Bb|-6-8---|-------|4-4-4-4|6-6-6-6|-------|-8-8-8|6666666|
Gb|-------|-------|-------|-------|-------|------|-------|
    Bb-Am  	   Dm-Gm 		Bb-C
    I      	   I     	I find myself in you


INTERLUDE

GTR I
eb|----------------------------------------------------------------|
Bb|----------------------------------------------------------------|
Gb|--5--6---8---10---5--5--6---8--10---5--5--6---8--10-------------|
Db|--5--5---9---10---5--5--5---9--10---5--5--5---9--10-------------|2x
Ab|----------------------------------------------------------------|
Eb|----------------------------------------------------------------|
GTR II pasok sa 2nd round
eb|--------------5-----------------5-----------------5--55555555---|
Bb|--5h6-5h6-5h6-6-----5h6-5h6-5h6-6-----5h6-5h6-5h6-6--66666666---|
Gb|55----------------55----------------55--------------------------|
Db|----------------------------------------------------------------|
Ab|----------------------------------------------------------------|
Eb|----------------------------------------------------------------|

VERSE II
    F           Dm        Am         Bb
eb|----------|----------|------0---|------1---|
Bb|-6--------|--6-------|----1-----|----3-----|
Gb|-5--------|--7-------|--2-------|--3-------|
Db|-3--------|--7-------|----------|----------|
Ab|----------|----------|-0--------|-1--------|
Eb|----------|----------|----------|----------|


F          Dm          Am          Bb
Ive sat before on the floor of my room
F           Dm                 Am             Bb
I always thought that it would be like this real soon

F             Dm               Am             Bb
But now your here, nothing to fear with those eyes
F           Dm            Am                     Bb
I cant explain why i grow weak when you look into mine


REFRAIN

GTR I
   Am	     Bb	      Gm       C
eb|-00000--|-11111--|-33333--|-00000--|
Bb|-11111--|-33333--|-33333--|-11111--|
Gb|-22222--|-33333--|-33333--|-00000--|
Db|-22222--|-33333--|-55555--|-22222--|
Ab|-00000--|-11111--|-55555--|-33333--|
Eb|-xxxxx--|-xxxxx--|-33333--|-xxxxx--|
GTR II
eb|---10---|--------|---10-12|--------|
Bb|10----10|--------|10------|--------|
Gb|--------|--------|--------|--------|
Am     Bb        Gm             C
Find me, coz im lost in this reality

   Am	     Bb	      Gm       C
eb|-00000--|-11111--|-33333--|-00000--|
Bb|-11111--|-33333--|-33333--|-11111--|
Gb|-22222--|-33333--|-33333--|-00000--|
Db|-22222--|-33333--|-55555--|-22222--|
Ab|-00000--|-11111--|-55555--|-33333--|
Eb|-xxxxx--|-xxxxx--|-33333--|-xxxxx--|
GTR II
eb|---10---|--------|---10-12|--------|
Bb|10----10|--------|10------|--------|
Gb|--------|--------|--------|--------|
Am     Bb        Gm             C
Find me, coz ill let you, ill let you

CHORUS
GTR I
    Bb	     Am		C
eb|-111111-|-000000-|-----00000000----|
Bb|-333333-|-111111-|-----11111111----|
Gb|-333333-|-222222-|-----00000000----|2x
Db|-333333-|-222222-|-----22222222----|
Ab|-111111-|-000000-|-----33333333----|
Eb|--------|--------|-----------------|
GTR II
eb|8-8-8-8\|-8/10\8-|-13-13-13-13---13-13-13-13-|
Bb|--------|-8/10\8-|-13-13-13-13---13-13-13-13-|
Gb|--------|--------|---------------------------|

Bb Am        C
I    just want to say, please just stay with me
I     am not ashamed to be the same with you

    Bb	    Am      Dm      Gm      Bb      C
eb|-11111-|-00000-|-11111-|-33333-|-11111-|-0000-|
Bb|-33333-|-11111-|-33333-|-33333-|-33333-|-1111-|
Gb|-33333-|-22222-|-22222-|-33333-|-33333-|-0000-|
Db|-33333-|-22222-|-00000-|-55555-|-33333-|-2222-|
Ab|-11111-|-00000-|-------|-55555-|-11111-|-3333-|
Eb|-------|-------|-------|-33333-|-------|------|

eb|-----5-|-------|-------|-------|-------|------|
Bb|-6-8---|-------|-------|-------|-------|-6(7x)|
Gb|-------|-------|-------|-------|-------|------|
    Bb-Am  	   Dm-Gm 		Bb-C
    I      	   I     	I find myself in you


ROGEM - d2 sa interlude medyo pinag dikit2x ko na ung
        solo ung magkakatabing 10 ten un ha hindi 1,0
        ung sa 15 & 13 fifteen and thirteen un hindi
        1,5 & 1,3

INTERLUDE GTR I - F Dm Am Bb (2x)
GTR II part 1
eb|-8-101010--8-8-8--101010--8-8-8--101010--8-8-8--101010----------|
Bb|-8--8-8-8--8-8-8---8-8-8--8-8-8---8-8-8--8-8-8---8-8-8----------|
Gb|----------------------------------------------------------------|
Db|----------------------------------------------------------------|
Ab|----------------------------------------------------------------|
Eb|----------------------------------------------------------------|
GTR II part 2
eb|--131313-151515--131313-151515-131313-151515--131313-151515-----|
Bb|--131313-131313--131313-131313-131313-131313--131313-131313-----|
Gb|----------------------------------------------------------------|
Db|----------------------------------------------------------------|
Ab|----------------------------------------------------------------|
Eb|----------------------------------------------------------------|
repeat GTR II part 1 & part 2 tapos 2ng nasa baba play nyo
GTR II
eb|-15-15-15-15-15-15-15-15-15-15-15-15-15-15----------------------|
Bb|----------------------------------------------------------------|

CHORUS
GTR I
    Bb	     Am		C
eb|-111111-|-000000-|-----00000000----|
Bb|-333333-|-111111-|-----11111111----|
Gb|-333333-|-222222-|-----00000000----|
Db|-333333-|-222222-|-----22222222----|
Ab|-111111-|-000000-|-----33333333----|
Eb|--------|--------|-----------------|
GTR II
eb|------8-|----10-8|------13-13-13-13|
Bb|--6-8---|6-8-----|---11------------|
Gb|--------|--------|-10--------------|
Bb-Am        C
I    just want to say, please just stay with me

GTR I
    Bb	     Am		C
eb|-111111-|-000000-|-----00000000----|
Bb|-333333-|-111111-|-----11111111----|
Gb|-333333-|-222222-|-----00000000----|
Db|-333333-|-222222-|-----22222222----|
Ab|-111111-|-000000-|-----33333333----|
Eb|--------|--------|-----------------|
GTR II
eb|------8-|----10-8|------13-13-13-13|
Bb|--6-8---|6-8-----|---11-11-11-11-11|
Gb|--------|--------|-10--------------|
 Bb-Am     C
I    am not ashamed to be the same with you

GTR I
    Bb	    Am      Dm      Gm      Bb      C
eb|-11111-|-00000-|-11111-|-33333-|-11111-|-0000-|
Bb|-33333-|-11111-|-33333-|-33333-|-33333-|-1111-|
Gb|-33333-|-22222-|-22222-|-33333-|-33333-|-0000-|
Db|-33333-|-22222-|-00000-|-55555-|-33333-|-2222-|
Ab|-11111-|-00000-|-------|-55555-|-11111-|-3333-|
Eb|-------|-------|-------|-33333-|-------|------|
GTR II

eb|6-6-6-6|8-8-8-8|10-10-10-10|13-13-13-13|6-6-6-6|8-8-8-8|-13(4x)-|
Bb|6-6-6-6|8-8-8-8|10-10-10-10|11-11-11-11|6-6-6-6|8-8-8-8|--------|
Gb|-------|-------|-----------|-----------|-------|-------|--------|
Bb-Am  Dm-Gm Bb-C
I      I    I find myself in you

OUTRO
GTR I
eb|----------------------------------------------------------------|
Bb|----------------------------------------------------------------|
Gb|--5--6---8---10---5--5--6---8--10---5--5--6---8--10-------------|
Db|--5--5---9---10---5--5--5---9--10---5--5--5---9--10-------------|
Ab|----------------------------------------------------------------|
Eb|----------------------------------------------------------------|
GTR II
eb|--------------5-----------------5-----------------5--55555555---|
Bb|--5h6-5h6-5h6-6-----5h6-5h6-5h6-6-----5h6-5h6-5h6-6--66666666---|
Gb|55----------------55----------------55--------------------------|
Db|----------------------------------------------------------------|
Ab|----------------------------------------------------------------|
Eb|----------------------------------------------------------------|

---F----

ROGEM -> any suggestion and Comment txt 09103887102 send kyo ng Msj sa 
         Friendster Guitarizta_rogem@yahoo.com

|==========================================================================|
|==========================================================================|
|==========================================================================|


this song is part of their new Album named Transit if you want the complete 
tabs of the Album just type in the "song name" inputbar "Transit"

"""makikita nyo naman name ko dun ehh qng sino gumawa"""
Related for My Self In You tab