Song name
# A B C D E F G H I J K L M N O P Q R S T U V W X Y Z

Sponge Cola - Tuliro Acoustic tab

Song:      Tuliro (Acoustic)
Artist:    SpongeCola 
Album:     Transit
Tabbed by: Paul Anthonie Antoc
E-mail:    paul_antoc@yahoo.com
Address:   Mt.View,Mariveles,Bataan,Philippines
contact #: 09184423602


Note: There are 3 guitars in this tab, and its tune to half-step down


Tuning: Half-Step Down (Eb Ab Db Gb Bb eb)

Intro:

Gtr.1(only):
eb|-x-x-x-x--x-x-x-x--x-x-x-x--x-x-x-x---|
Bb|-3-3-3-3--3-3-3-3--5-5-5-5--4-4-4-4---|
Gb|-4-4-4-4--4-4-4-4--5-5-5-5--5-5-5-5---|
Db|-5-5-5-5--4-4-4-4--5-5-5-5--5-5-5-5---|   
Ab|-5-5-5-5--2-2-2-2--3-3-3-3--3-3-3-3---|
Eb|-x-x-x-x--x-x-x-x--x-x-x-x--x-x-x-x---|




Verse 1: "Labis, akong nahuhumaling..."


Gtr.1:

eb|-x-x-x-x--x-x-x-x--x-x-x-x--x-x-x-x---|
Bb|-3-3-3-3--3-3-3-3--5-5-5-5--4-4-4-4---|
Gb|-4-4-4-4--4-4-4-4--5-5-5-5--5-5-5-5---| 2x
Db|-5-5-5-5--4-4-4-4--5-5-5-5--5-5-5-5---|   
Ab|-5-5-5-5--2-2-2-2--3-3-3-3--3-3-3-3---|
Eb|-x-x-x-x--x-x-x-x--x-x-x-x--x-x-x-x---|


Gtr 2 enters at: "....sanang ipagkait mamalas ang langit"

eb|--8---8-8-----------------------|
Bb|--8-8-8-8---12-12p8-8h10p8------|
Gb|--9---9-9-8---------------------|
Db|--------------------------------|
Ab|--------------------------------|
Eb|--------------------------------|



Chorus:

Gtr 1: "Anong na-darama t'wing makikita kang dumarating..."
eb|---------------------------------|
Bb|---333----333----555----444------|
Gb|---444----444----555----555------| 2x
Db|---555----444----555----555------|
Ab|---555--2-222--3-333--3-333------|
Eb|-3-------------------------------|


Gtr 2:
eb|---777---777--888--888-----------|
Bb|---888---777--888--888-----------|
Gb|-7-777-7-777--999--888-----------| 2x
Db|---------------------------------|
Ab|---------------------------------|
Eb|---------------------------------|

Gtr 3:
eb|---------------------------------|
Bb|-x-333--x-333--x-555--x-444------|
Gb|-x-444--x-444--x-555--x-555------| 2x
Db|-x-555--x-444--x-555--x-555------|
Ab|-x-555--x-222--x-333--x-333------|
Eb|---------------------------------|




Gtr 1: "At walang sinumang makapipigil sa akin.."
eb|-------------------------------|          
Bb|--3-3---3-3---5-5---4-4--------|        
Gb|--4-4---4-4---5-5---5-5--------| 2x  
Db|--5-5---4-4---5-5---5-5--------|
Ab|--5-5---2-2---3-3---3-3--------|
Eb|-------------------------------|

Gtr 2:
eb|-------------------------------|
Bb|-------------------4444--------|
Gb|-------4444--5555--5555--------| 2x
Db|-5555--4444--5555--5555--------|
Ab|-5555--2222--3333--3333--------|
Eb|-3333--------------------------|

Gtr 3:(Tremolo picking)=yung mabilis na madami..
eb|-10--11--12--11--10--11--12--13--|
Bb|-12--12--12--12--12--12--12--12--|
Gb|---------------------------------|
Db|---------------------------------|
Ab|---------------------------------|
Eb|---------------------------------|



Gtr 1:"Sa aking isip... Sayo..."
eb|-------3~------|
Bb|--5-5--4~------|
Gb|--5-5--5~------|
Db|--5-5--5~------|
Ab|--3-3--3~------|
Eb|---------------|

Gtr 2 & 3:
eb|-------3~------|
Bb|-------4~------|
Gb|--5-5--5~------|
Db|--5-5--5~------|
Ab|--3-3----------|
Eb|---------------|



Verse 2: "Wari, di ko na malito"

Gtr 1:
eb|-----77-77-77-77-77-77-88-88-88-88-88-88---|
Bb|--33-88-88-88-77-77-77-88-88-88-88-88-88---|
Gb|--44-77-77-77-77-77-77-99-99-99-88-88-88---|
Db|--55---------------------------------------|
Ab|--55---------------------------------------|
Eb|-------------------------------------------|



"At sa panaginip, ikay mamalagi..."

Gtr 1 & 2:
eb|----------------------------------------------|
Bb|-333-333-333--333-333--555-555--444-444-------|
Gb|-444-444-444--444-444--555-555--555-555-------|
Db|-555-555-555--444-444--555-555--555-555-------|
Ab|-555-555-555--222-222--333-333--333-333-------|
Eb|----------------------------------------------|

Gtr 3:
eb|---------------------------------|
Bb|-8888-/10-8--8---8---10/12-10----|
Gb|-7777-/9--7--7-7---7--9/11-9-----| 2x
Db|---------------------------------|
Ab|---------------------------------|
Eb|---------------------------------|




Chorus:

Gtr 1 & 2: "Anong na-darama t'wing makikita kang dumarating..."
eb|---------------------------------|
Bb|---333----333----555----444------|
Gb|---444----444----555----555------|  2x
Db|---555----444----555----555------|
Ab|---555--2-222--3-333--3-333------|
Eb|-3-------------------------------|


Gtr 3:
eb|----------------------------|
Bb|--10-10/12-12-12/15~--------|
Gb|---9--9/11-11-11/14~--------|
Db|----------------------------|
Ab|----------------------------|
Eb|----------------------------|



Gtr 1: "At walang sinumang makapipigil sa akin.."
eb|-------------------------------|          
Bb|--3-3---3-3---5-5---4-4--------|        
Gb|--4-4---4-4---5-5---5-5--------| 2x  
Db|--5-5---4-4---5-5---5-5--------|
Ab|--5-5---2-2---3-3---3-3--------|
Eb|-------------------------------|

Gtr 2:
eb|-------------------------------------------------------|
Bb|----8---8--8-----8---8--8----8---8--8-----8---8--8-----| 
Gb|-7---7---7----7---7---7----7--7---7----7---7---7-------| 2x
Db|-------------------------------------------------------|
Ab|-------------------------------------------------------|
Eb|-------------------------------------------------------|

Gtr 3:(Tremolo picking)=yung mabilis na madami..
eb|-10--11--12--11--10--11--12----|
Bb|-12--12--12--12--12--12--12----|
Gb|-------------------------------|
Db|-------------------------------|
Ab|-------------------------------|
Eb|-------------------------------|



Gtr 1,2 & 3:"Sa aking isip... Sayo..."
eb|---------3---------|
Bb|------5--4-4-4-4---|
Gb|--555-5--5-5-5-5---|
Db|--555-5--5-5-5-5---|
Ab|--333-3--3-3-3-3---|
Eb|-------------------|


Gtr 1 & 2: "Anung na-darama"

eb|---------------------|
Bb|---333--x--222-------|
Gb|---444--x--444-------|  
Db|---555--x--444-------|
Ab|---555--x--222-------|
Eb|-3-------------------|



SOLO:

Gtr 1 & 2: Do chorus chords


Gtr 3:

eb|-7-8-10-10-10-10/12-10-8-7h8-10-10/13---------7-8-8/10-8-7-8-------|
Bb|--------------------------------------15~--------------------8~----|
Gb|-------------------------------------------------------------------|
Db|-------------------------------------------------------------------|
Ab|-------------------------------------------------------------------|
Eb|-------------------------------------------------------------------|


eb|------------------------------------10-----------------------------------10~--|
Bb|-------8/10\8-10-----8-7-8-----10------------8---8/10\8~------------8/12------|
Gb|-7---7-----------7-9-------7-7----7----7-7-7---7----------------7-9-----------|
Db|---9-----------------------------------------------------7--7-9---------------|
Ab|------------------------------------------------------------------------------|
Eb|------------------------------------------------------------------------------|



Chorus:

Gtr 1 & 2: "Anong na-darama t'wing makikita kang dumarating..."
eb|---------------------------------|
Bb|---333----333----555----444------|
Gb|---444----444----555----555------|  2x
Db|---555----444----555----555------|
Ab|---555--2-222--3-333--3-333------|
Eb|-3-------------------------------|


Gtr 3:
eb|-------------------------|
Bb|------8h10-12~--10-8~----|
Gb|--7-9------11~---8-7~----|
Db|-------------------------|
Ab|-------------------------|
Eb|-------------------------|




Gtr 1 & 2: "At walang sinumang makapipigil sa akin.."
eb|-------------------------------|          
Bb|--3-3---3-3---5-5---4-4--------|        
Gb|--4-4---4-4---5-5---5-5--------| 2x  
Db|--5-5---4-4---5-5---5-5--------|
Ab|--5-5---2-2---3-3---3-3--------|
Eb|-------------------------------|


Gtr 3:(Tremolo picking)=yung mabilis na madami..
eb|-10--11--12--11--10--11--12--13--------|
Bb|-12--12--12--12--12--12--12--12--12----|
Gb|---------------------------------12----|
Db|---------------------------------------|
Ab|---------------------------------------|
Eb|---------------------------------------|


Gtr 1,2 & 3:"Sa aking isip... Sayo..."
eb|-------------------|
Bb|------5--4-4-4-4---|
Gb|--555-5--5-5-5-5---|
Db|--555-5--5-5-5-5---|
Ab|--333-3--3-3-3-3---|
Eb|-------------------|




Chorus:


Gtr 1,2 & 3: "Anong na-darama ngayo't nandito ka aking tabi"
eb|---------------------------------|
Bb|---333----333----555----444------|
Gb|---444----444----555----555------|  2x
Db|---555----444----555----555------|
Ab|---555--2-222--3-333--3-333------|
Eb|-3-------------------------------|



Gtr 1 & 2: "At walang sinumang makapipigil sa akin.."
eb|-------------------------------|          
Bb|--3-3---3-3---5-5---4-4--------|        
Gb|--4-4---4-4---5-5---5-5--------| 2x  
Db|--5-5---4-4---5-5---5-5--------|
Ab|--5-5---2-2---3-3---3-3--------|
Eb|-------------------------------|


eb|----------------8/10-8-----|
Bb|-----8h10p8---8------------| 4x
Gb|-7-9--------7--------------|
Db|---------------------------|
Ab|---------------------------|
Eb|---------------------------|


Gtr 1,2 & 3:"Sa aking isip... Sayo..."
eb|---------------|
Bb|------5--4~----|
Gb|--555-5--5~----|
Db|--555-5--5~----|
Ab|--333-3--3~----|
Eb|---------------|



Outro: "Anung na-darama.. Ohhhhh"

Gtr.1:
eb|---------------------------------|
Bb|---333----333----555----444------|
Gb|---444----444----555----555------|  4x
Db|---555----444----555----555------|
Ab|---555--2-222--3-333--3-333------|
Eb|-3-------------------------------|


Gtr 2 & 3 are under construction


Last Chords:
eb|-------3~-----|
Bb|---3---3~-----|
Gb|---4---4~-----|
Db|---5---5~-----|
Ab|---5---5~-----|
Eb|-------3~-----|


End
Tap to rate this tab
# A B C D E F G H I J K L M N O P Q R S T U V W X Y Z