Song name
# A B C D E F G H I J K L M N O P Q R S T U V W X Y Z

Sponge - Molly tab

solo

		2x
E |----------------------------------------|--------------------------------------------|
B |-----------10----------------7----------|---8-10-8-12-8-10-8--10-12-10-14-10-12-10---|
G |---6h7h9p7----7-6-7--6-7-9-7------------|--------------------------------------------|
D |--------------------------------9-7-9---|--------------------------------------------|
A |----------------------------------------|--------------------------------------------|
E |----------------------------------------|--------------------------------------------|

or

E |----------------------------------------------------|--------------------------------------------|
B |----------------------------------------------------|--------------------------------14----------|
G |--------------14------------------------11----------|-12-14-12-16-12-14-12--14-16-14----14-16-14-|
D |--11-12-14-12-----12-11-12--11-12-14-12-------------|--------------------------------------------|
A |-------------------------------------------14-12-14-|--------------------------------------------|
E |----------------------------------------------------|--------------------------------------------|

Tap to rate this tab
# A B C D E F G H I J K L M N O P Q R S T U V W X Y Z