Guitaretab - guitar tabs
Song name
# A B C D E F G H I J K L M N O P Q R S T U V W X Y Z

Sponge - All This And Nothing tab

SPONGE- All This and Nothing

Tab by Dr. David Schaeffer

This is a great song from The Craft soundtrack.  It is difficult to figure out at
first due to the unique tuning.  First, the guitar is tuned one-half step down (D#
G# C# F# A# D#) Then, it is Drop-C# tuned (Low D# is dropped one full step to C#)
so that the final tuning from low to high is C# G# C# F# A# D#
The rest is cake

(Drop-C# tuning)

D#-----------------------------1--1--------------------------------1--1--1-|
A#-------3--------0-----0------1--0--1-------3--------0-----0------1--0--1-|
F#-------2--------0-----0------0--0--0-------2--------0-----0------0--0--0-|
C#-------4--------0-----0--------------------4--------0-----0--------------|
G#----0-----0-----------------------------0-----0--------------------------|
C#--0----------5-----4-----3~~----------0----------5-----4-----3~~---------|
[ Tab from: http://www.guitaretab.com/s/sponge/69232.html ]
D#-----------------------------1--1----------------------------------------|
A#-------3--------0-----0------1--0--1-------3--------0-----0--------------|
F#-------2--------0-----0------0--0--0-------2--------0-----0--------------|
C#-------4--------0-----0--------------------4--------0-----0--3~~~~------|
G#----0-----0-----------------------------0-----0---------------3~~~~------|
C#--0----------5-----4-----3~~----------0-----------5-----4-----3~~~~------|

Bridge/Chorus:

D#--x-x-x-x-x-x-x-x-xx-x-x--x-x-x-x-x-x-x-x-xx-x-x--|
A#--3-3-3-3-3-3-x-x-x-x-x-x--3-3-3-3-3-3-x-x-x-x-x-x--|
F#--2-2-2-2-2-2-0-0-0-0-0-0--2-2-2-2-2-2-0-0-0-0-0-0--|
C#--0-0-0-0-0-0-5-5-5-5-5-5--0-0-0-0-0-0-5-5-5-5-5-5--|
G#--0-0-0-0-0-0-3-3-3-3-3-3--0-0-0-0-0-0-3-3-3-3-3-3--|
C#--0-0-0-0-0-0-5-5-5-5-5-5--0-0-0-0-0-0-5-5-5-5-5-5--|

But Ill give a mind any reason   To fall and take the easy way out


D#--x-x-x-x-x-x-x-x-xx-x-x--x-x-x-x-x-x-x-x-xx-x-x--|
A#--3-3-3-3-3-3-x-x-x-x-x-x--0-0-0-0-0-0-x-x-x-x-x-x--|
F#--2-2-2-2-2-2-0-0-0-0-0-0--0-0-0-0-0-0-0-0-0-0-0-0--|
C#--0-0-0-0-0-0-5-5-5-5-5-5--4-4-4-4-4-4-5-5-5-5-5-5--|
G#--0-0-0-0-0-0-3-3-3-3-3-3--2-2-2-2-2-2-3-3-3-3-3-3--|
C#--0-0-0-0-0-0-5-5-5-5-5-5--4-4-4-4-4-4-5-5-5-5-5-5--|

Ill never give under pressure   Give my permission   I bet you say that you will
Related for All This And Nothing tab