Song name
# A B C D E F G H I J K L M N O P Q R S T U V W X Y Z

Spongecola - Kay Tagal Kitang Hinintay tab

kay tagal kitang hinintay
Spongecola
Tabbed by: Emman Avellanosa
Eb Tunning(Half Step)

->This is my first tab ^^ so enjoy it. i'm 15 years old ^^ for comments, sugguestions, 
just add me at FB 'john avellanosa' i'm not sure if it is correct. this song is great!! I 
dedicated this to 'Chelsea Viran' I based the performance of spongecola in the EB. eVo \m/


Verse(clear)
Hawakan mo ang aking kamay
e--------------------------|
B-------10--10--10--10-----|
D--------------------------|
G--------------------------|
A------8---8---8---8---8---|
E--------------------------|

at tayong dalawa'y
e--------------------------|
B-------13--13--13--13-----|
D--------------------------|
G--------------------------|
A-----12--12--12--12--12---|
E--------------------------|

Maghahasik ng kaligayahan
e--------------------------|
B--6-6-6-6-6---5-5-5-5-5---|
D--------------------------|
G--------------------------|
A-5-5-5-5-5---3-3-3-3-3----|
E--------------------------|


Bitawan mong unang salita
e--------------------------|
B---3-3-3-3-3----1-1-1-1-1-|
D--------------------------|
G---------------3-3-3-3-3--|
A--1-1-1-1-1---------------|
E--------------------------|

Ako ay handa ng tumapak sa lupa
e--------------------------|
B---3-3-3-3-3----1-1-1-1-1-|
D--------------------------|
G---------------3-3-3-3-3--|
A--1-1-1-1-1---------------|
E--------------------------|

(the same pattern with the first verse)
Tapos na ang paghihintay nandito kana
Oras ay naiinip magdahandahan
Sinasamsam bawat gunita
Na para bang tayo'y di na tatanda


Pre-Chorus:
Ligaya mo'y nasa huli Sambit ng iyong mga labi
e------------------------------------|
B-----3-3-3-3-3-----5-5-5-5-5--------|
D------------------------------------|(2x)
G------------------------------------|
A----1-1-1-1-1-----3-3-3-3-3---------|
E------------------------------------|



Chorus(Use power chords)

   F            A
Parang isang panaginip
   D           C
Ang muling mapagbigyan
   Bb          F
Tayo'y muling magkasama
   D           C
Ang dati ay baliwala


Instrumental:
F-A-D-C-Bb


Verse(distored)
(gnun p din ung picking peo pakonte-konte lan, kse distored dto ung lead. hirap 
magenglish eh :DD)
  F                         A
Nagkita rin ang ating landas wala ng iba
  D                         C
Akong hinihiling kundi ika'y pagmasdan
 Bb                  F
Mundo ko ay iyong niyanig
 D                   C
O anong ligayang ika'y sumama sa akin


Pre-chorus(distored):

   Bb		C
Nais ko lang humigpit
   Bb		C
Sa saliw ng iyong tinig


Chorus(distored)
 F	      A
Parang isang panaginip
 D	      C
Ang muling mapagbigyan
 Bb	      F
Tayo'y muling magkasama
 D 	      C
Ang dati ay baliwala
 F	      A
Panatag na ang kalooban ko
 D	      C
At ika'y kapiling ko na
 Bb	      F
O kay tagal kitang hinintay
 D            C
O kay tagal kitang hinintay

Adlib(slightly distored)\m/
 F-A-D-C-Bb-F-D-C

Pre-Chorus(slightly distored)
  Bb		C
Ligaya mo'y nasa huli
  Bb 		C
Sambit ng iyong mga labi

Chorus(clear)
 F		A
Parang isang panaginip
 D		C
Ang muling mapagbigyan
 Bb		F
Tayo'y muling magkasama
 D		C
Ang dati ay baliwala
Ang dati ay baliwala

 F	      A
Parang isang panaginip
 D	      C
Ang muling mapagbigyan
 Bb	      F
Tayo'y muling magkasama
 D 	      C
Ang dati ay baliwala
 F	      A
Panatag na ang kalooban ko
 D	      C
At ika'y kapiling ko na
 Bb	      F
O kay tagal kitang hinintay
 D            C
O kay tagal kitang hinintay



				->End<-
Tap to rate this tab
# A B C D E F G H I J K L M N O P Q R S T U V W X Y Z