Song name
# A B C D E F G H I J K L M N O P Q R S T U V W X Y Z

Spongecola - Kay Tagal Kitang Hinintay tab

             mqa tol eto unq solo add nio aqouh paq may problema.....
                            erickaranda88@yahoo.com

e ------------------------14-11h12-----------------------------12------14~~-|
B --5~~------9-10-11~~-\12---------12/14\12--------------10-x-9---10/12-----|
G --4~~--9-11-------------------------------11/13\11------------------------|
D ---------------------------------------------------9h11-------------------|
A --------------------------------------------------------------------------|
E --------------------------------------------------------------------------|
    xxxxxxx   xx  xx   xx
e --------------------------------------12-----16---11h12h14---------------|
B ----------------------------10-9-7\5--15^(17)--15r-----------------------|
G ----------9---11---9---8h9-/11-9-8\6-----------------------11h13p11\9----|
D --9--9-11---9----9---9---------------------------------------------------|
A ---11--------------------------------------------------------------------|
E -------------------------------------------------------------------------|

next tym nlnq unq cnqet cnqet nia mdali lnq nman un eh....!!!!!





sana mqustuhan nio......!!!!! WestbankAttraction fun paqe p like rin....
Tap to rate this tab
# A B C D E F G H I J K L M N O P Q R S T U V W X Y Z