Song name
# A B C D E F G H I J K L M N O P Q R S T U V W X Y Z

Spongecola - Tambay tab

Tabber: deatharms
Email: jason_3mo@yahoo.com
Cell# : 09426665517

Note: wala pa po tong adlib

Intro :
|------------------------------------6--|
|----5------4------2--------666/86-----|
|------4------4------3-5h7-------------|
|--2-------------4----------------------|
|---------2-----------------------------|

Verse I:
|----------------------------|
|----5------4------2------4--|  
|------4------4------3-------|   
|--2-------------4------6----|   
|---------2------------------|
|----------------------------|
                                  Twice        
|-------------------------2--|
|----5------4------2---------|
|------4------4------3-------|
|--2-------------4------4----|
|---------2------------------|
|----------------------------|

Refrain
Bm(6th fret), E twice
F#m, Abm

Chorus:
|------------------------|
|--5--4--4-4--6-6-6-6-6--|
|--4--4--4-4--6-6-6-6-6--|
|--2--2--2-2--4-4-4-4-4--|
|-----2------------------|
|------------------------|

|---------------------|
|--5--4--4-4-4-4-4-4--|
|--4--4--4-4-4-4-4-4--|
|--2-----2-2-2-2-2-2--|
|-----2---------------|
|---------------------|

|------------------------|
|--5--4--4-4--6-6-6-6-6--|
|--4--4--4-4--6-6-6-6-6--|
|--2--2--2-2--4-4-4-4-4--|
|-----2------------------|
|------------------------|

Bm(6th fret), F#m 

Guitar Solo
|------------------------------------|
|--16-15-------------16-15-----------|
|--------19-17-15-17-----------------|
|--------------------------15-17-----|
|------------------------------------|
|------------------------------------|

|--17^17-15-13-15--------------------|
|-----------------13-15-15-13\11~----|
|------------------------------------|
|------------------------------------|
|------------------------------------|
|------------------------------------|

Verse II:

|----------------------------|
|----5------4------2------4--|  
|------4------4------3-------|   
|--2-------------4------6----|   
|---------2------------------|
|----------------------------|
                                  Twice        
|-------------------------2--|
|----5------4------2---------|
|------4------4------3-------|
|--2-------------4------4----|
|---------2------------------|
|----------------------------|

Refrain
Bm(6th fret), E twice
F#m, Abm

Chorus:
|------------------------|
|--5--4--4-4--6-6-6-6-6--|
|--4--4--4-4--6-6-6-6-6--|
|--2--2--2-2--4-4-4-4-4--|
|-----2------------------|
|------------------------|

|---------------------|
|--5--4--4-4-4-4-4-4--|
|--4--4--4-4-4-4-4-4--|
|--2-----2-2-2-2-2-2--|
|-----2---------------|
|---------------------|

|------------------------|
|--5--4--4-4--6-6-6-6-6--|
|--4--4--4-4--6-6-6-6-6--|
|--2--2--2-2--4-4-4-4-4--|
|-----2------------------|
|------------------------|

Bm(6th fret), F#m 

Adlib:
Do Chorus Chords
( d ko pa po alam )

Drums

Bm(6th fret), F#m (Strum)
Bm(6th fret), F#m , Abm

Last Chorus:
|------------------------|
|------------------------|
|--5--4------------------|
|--4--4--4-4--6-6-6-6-6--|
|--2-----4-4--6-6-6-6-6--|
|-----2--2-2--4-4-4-4-4--|

|----------------------|
|----------------------|
|--5--4----------------|
|--4--4--4-4-4-4-4-4---|
|--2-----4-4-4-4-4-4---|
|-----2--2-2-2-2-2-2---|


|------------------------|
|------------------------|
|--5--4------------------|
|--4--4--4-4--6-6-6-6-6--|
|--2-----4-4--6-6-6-6-6--|
|-----2--2-2--4-4-4-4-4--|

F#m(6th fret), F#m, A(power chord)
Tap to rate this tab
# A B C D E F G H I J K L M N O P Q R S T U V W X Y Z