Song name
# A B C D E F G H I J K L M N O P Q R S T U V W X Y Z

Spooky Tooth - Evil Woman tab

Band: Spooky Tooth
Song: Evil Woman
Album: Spooky Two
Written by: Weiss
Tab by Sam (fffan41@aol.com)

Main riff: occasionaly slides are played instead of hammer-ons
E|--------------|-------------------|
B|--------------|-------------------|
G|--------------|-------------------|
D|--------1-1h3-|-------------------|
A|3-3-1h3-------|3-3------1---3-2-1-|
E|--------------|-----1h3---3-------|

Chorus:C7|F7|

Solo backing (organ): Cm x4
then play around with a riff something like this
E|---------------|
B|---------------|
G|------10--8-10-|
D|10-10-10--8-10-|
A|10-10-8---6-8--|
E|8--8-----------|

solo in C minor
Tap to rate this tab
# A B C D E F G H I J K L M N O P Q R S T U V W X Y Z