Guitaretab - guitar tabs
Song name
# A B C D E F G H I J K L M N O P Q R S T U V W X Y Z

Spoon - Dont You Evah tab

----------------------------------------------------------------------------
			     spoon- donít you evah
----------------------------------------------------------------------------
Tabbed by:nimajneb19521
Email:dsbroome5@adelphia.net
my first tab. one of my favorite newish songs, easy to get the hang of.
Tuning: standard
Bass line thru out the song
e|--------------------------------------------------------------------------|
B|--------------------------------------------------------------------------|
G|--------------------------------------------------------------------------|
D|--------------------------------------------------------------------------|
A|--------------------------------------------------------------------------|
E|9--7-4-4--11ó9-7-4-7---9-7-4-4--11--9-7-4-7-------------------------------|
First guitar part and starts in the verse
e|--------------------------------------------------------------------------|
B|--------------------------------------------------------------------------|
G|--------------------------------------------------------------------------|
D|6-6-6--4-4-4--3-3-3--4-4-4--6-6-6--4-4-4--3-3-3--4-4-4--------------------|
A|--------------------------------------------------------------------------|
E|--------------------------------------------------------------------------|
After above part (all sliding up and down)
e|---------------------------------------------------------------------------|
B|---------------------------------------------------------------------------|
G|4-4-4--3-3-3--1-1-1--3-3-3--4-4-4--3-3-3--1-1-1--3-3-3---------------------|
D|6-6-6--4-4-4--3-3-3--4-4-4--6-6-6--4-4-4--3-3-3--4-4-4---------------------|
A|---------------------------------------------------------------------------|
E|---------------------------------------------------------------------------|
Right before the chorous
e|--------------------------------------------------------------------------|
B|--------------------------------------------------------------------------|
G|1-1-1--3-3-3--4-4-4--3-3-3--1-1-1--3-3-3--4-4-4--3-3-3--------------------|
D|3-3-3--4-4-4--6-6-6--4-4-4--3-3-3--4-4-4--6-6-6--4-4-4--------------------|
A|--------------------------------------------------------------------------|
E|--------------------------------------------------------------------------|
Right after chorous
e|----4-4-4-x-----4-4-x--------4-4-4-x-----4-4-4-x--------------------------|
B|----4-4-4-x-----4-4-x--------4-4-4-x-----4-4-4-x--------------------------|
G|--4-4-4-4-x---3-3-3-x------1---1-1-x---3-4-4-4-x--------------------------|
D|6-6-6-------4-4-4--------3-----------4-4----------------------------------|
A|--------------------------------------------------------------------------|
E|--------------------------------------------------------------------------|

e|4-4-4~------4-4-4~-------4-4-4~------4-4-4~-------------------------------|
B|4-4-4~------4-4-4~-------4-4-4~------4-4-4~-------------------------------|
G|4-4-4~------3-3-3~-------1-1-1~------3-3-3~-------------------------------|
D|6-6-6~------4-4-4~-------3-3-3~------4-4-4~-------------------------------|
A|--------------------------------------------------------------------------|
E|--------------------------------------------------------------------------|
[ Tab from: http://www.guitaretab.com/s/spoon/100006.html ]
Related for Dont You Evah tab