Song name
# A B C D E F G H I J K L M N O P Q R S T U V W X Y Z

Spoon - Dont You Evah tab

                       This is an easy song, and it is great for
                       starters.


You can play this on a base or guitar, in the real song I think it is a base
   E --------------------------------------------------------------------|
   B --------------------------------------------------------------------|
   G --------------------------------------------------------------------|
   D -----------------1---------------------------------1----------------|
   A ---4---2-------------4---2-------2---4---2-------------4---2------2-|
   E -----------4-4---------------4---------------4-4---------------4----|
    You play this throughout the song, But after you play it 4 times, This comes in:
   E ------------------------------------------------------|
   B ------------------------------------------------------|
   G ---4---4---4---3---3---3---1---1---1------------------|
   D ---6---6---6---4---4---4---3---3---3------------------|
   A ------------------------------------------------------|
   E ------------------------------------------------------|

               You play this and that is the whole song.
Tap to rate this tab
# A B C D E F G H I J K L M N O P Q R S T U V W X Y Z