Guitaretab - guitar tabs
Song name
# A B C D E F G H I J K L M N O P Q R S T U V W X Y Z

Spoon - Way We Get By tab

Band:   Spoon
Sond:   The way we get by
Tab by: Heath Moore

Thanks to other tabbers for providing a jumping off point.


Intro and verse 1
    A              F    A               F
E|-----------------------------------------|
B|-----------------------------------------|
G|---6-6-7-9-7-6-6-2-2----6-6-7-9-7-6---2--| index for 6, pinky for 7 and 0
D|---7-7-7-7-7-7-7-3-3----7-7-7-7-7-7---3--| ring
A|-----------------3-3------------------3--|
E|--5-----5-5-5-5--1-1--/5-----5-5-5-5--1--| pointer

We get high in back seats of cars
We break into mobile homes
We go to sleep to shake appeal
Never wake up on our own

Chorus chords: 
Am    x025xx
Am/G  3x25xx
F     1332xx

    Am                    Am/G                 F
And that's the way we get by,   the way we get by
    Am                    Am/G                 F
And that's the way we get by,   the way we get by


Repeat Intro 1x


Verse 2 chords:
A     x02220
Fmaj7 x33210

 A                     Fmaj7
We go out in stormy weather
 A                    Fmaj7
We rarely practice discern
 A                         Fmaj7
We make love to some weird sin
 A                  Fmaj7
We seek out the taciturn


Chorus: (2 times)

Chorus2: (with intro Riff 1x)
And thatís the way we get by
Thatís the way we get by


Verse 2:
  A                               Fmaj7
We found a new kind of dance in a magazine
  A                                  Fmaj7
Tried it out it's like nothing you ever seen
  A                                    Fmaj7
You sweet talk like a cop and you know it
  A
You bought a new bag of pot, said let's make a new start


Chorus:
[ Tab from: http://www.guitaretab.com/s/spoon/60465.html ]
    Am                    Am/G                 F
And that's the way to my heart,   The way to my heart
    Am                Am/G                 F
That's the way we get by,   The Way we get by
    Am                    Am/G                 F
And that's the way we get by,   the way we get by
    Am                    Am/G                 F
And that's the way we get by,   the way we get by


Chorus2: (with intro Riff 1x)
And thatís the way we get by
Thatís the way we get by


Bridge / Piano Solo

d - downstroke
u - upstroke

  Am              Am7/G           Fmaj7           E     
  d d d u d u d u d u d u d u d u d u d u d u d u       <- stroke
  1 & 2 & 3 e & a 1 & 2 & 3 e & a 1 & 2 & 3 e & a       <- timing
e-----0-0-0-0-0-------0-0-0-0-0-0---0-0-0-0-0-0-0-----------------|
B-----1-1-3-1-1-------1-1-3-1-1-1---1-1-1-3-1-1-1-0-0-------------|
G---------------0---0-------------2---------------1-1-------------| x2
D---2-----------2---2-------------3---------------2-2-(many E's)--|
A-0-----------------------------------------------2-2-------------|
E-----------------3-----------------------------------------------|

   F         Am        E7
   1 2 3 & 4 1 2 3 & 4 1 2 3 & 4 1 2 3 & 4  (all downstrokes)
e------------------------------------------------|
B--1-1-1---1-1-1-1---1---------------------------|
G--2-2-2p0-2-2-2-2---2-1-1-1---1-1-1-1---1-------|
D--3-3-3---3-2-2-2h3-2-0-0-0h2-0-0-0-0h2-0-------|
A----------------------2-2-2---2-2-2-2---2-------|
E------------------------------------------------|

   F          Am        E7       E7
   1 2 3 & 4 1 2 3 & 4 1 2 3 & 4 1 2 3 4    (all downstrokes)
e--------------------------------0-0-0-0---------|
B--1-1-1---1-1-1-1---1-----------3-3-3-3---------|
G--2-2-2p0-2-2-2-2---2-1-1-1---1-1-1-1-1---------|
D--3-3-3---3-2-2-2h3-2-0-0-0h2-0-2-2-2-2---------|
A----------------------2-2-2---2-2-2-2-2---------|
E------------------------------------------------|


Verse 3: (again with Intro Riff)
We get high in back seats of cars
We put faith in our concerns
Fall in love to down on the street
We believe in the sum of ourselves


Chorus: (2 times)
    Am                    Am/G                 F
And that's the way we get by,   the way we get by
    Am                    Am/G                 F
And that's the way we get by,   the way we get by


Chorus2: (with intro Riff 1x)
And thatís the way we get by
Thatís the way we get by
Related for Way We Get By tab