Song name
# A B C D E F G H I J K L M N O P Q R S T U V W X Y Z

Spoon - Minor Tough tab

Band: Spoon
Song: The Minor Tough


tabbed by jam9383@yahoo.com


Intro

e---------------------------------------------------------------------|
B---------------------------------------------------------------------|
G---------------------------------------------------------------------|
D---------------------------------------------------------------------|
A---------------------------------------------------------------------|
E-8-8-7-6-6-7-0---------------7-6-6-6-7--------------6-7-6-0-6-6-7-0--|

e--2--2-----3--3----2--2---3------------------------------------------|
B--3--3-----5--5----3--3---5------------------------------------------|
G---------------------------------------------------------------------|
D---------------------------------------------------------------------|
A---------------------------------------------------------------------|
E---------------------------------------------------------------------|

e--2--2-----3--3----2--2---3-3---3----3-3-----------------------------|
B--3--3-----5--5----3--3---5-5---5----5-5-----------------------------|
G---------------------------------------------------------------------|
D---------------------------------------------------------------------|
A---------------------------------------------------------------------|
E---------------------------------------------------------------------|

Chorus

e---------------------------------------------------------------------|
B-5-5-5-5-5-5-4-4-4-4-4-4--8-8-7-10-7-8-8-7-10------------------------|
G---------------------------------------------------------------------|
D---------------------------------------------------------------------|
A---------------------------------------------------------------------|
E---------------------------------------------------------------------|

e---------------------------------------------------------------------|
B-5-5-5-5-5-5-4-4-4-4-4-4--8-//-7-10-//7-//8//-7-//10-//-------4-5----|
G---------------------------------------------------------------------|
D---------------------------------------------------------------------|
A---------------------------------------------------------------------|
E-------------------------------------------------------------------0-|

Bridge

e------------------5--------------------------------------------------|
B--5-5-8-7-7-8-8-7---8-7-5-----12-11-14-12-12-11-14-12-11-------------|
G---------------------------------------------------------------------|
D--2------------------------------------------------------------------|
A---------------------------------------------------------------------|
E---------------------------------------------------------------------|

e---------------------------------------------------------------------|
B-12-12-12-12-12-11-11-11-11-11---------------------------------------|
G---------------------------------------------------------------------|
D----------------------------8----------------------------------------|
A---------------------------------------------------------------------|
E---------------------------------------------------------------------|

Verse 2

e---------------------------------------------------------------------|
B---------------------------------------------------------------------|
G---------------------------------------------------------------------|
D--9--------10-10p9-------------------9-------10-10-9-----------------|
A--9h10 12----------------------------9h10-12-------------------------|
E------------------------7-8-8-8p7--------------------7-7h8/--\-------|

e---------------------------------------------------------------------|
B---------------------------------------------------------------------|
G---------------------------------------------------------------------|
D------12-9----12-9-------9-------10-10p9-----------------------------|
A---10------10------------9h10-12-------------------------------------|
E---------------------------------------------------------------------|

Outro Bridge Overdub

e--12-12-//-----------------------------------------------------------|
B--12-12-//----------------11/12--------------------------------------|
G---------------------------------------------------------------------|
D---------------------------------------------------------------------|
A---------------------------------------------------------------------|
E---------------------------------------------------------------------|

any comments/corrections needed contact me, please rate
Tap to rate this tab
# A B C D E F G H I J K L M N O P Q R S T U V W X Y Z