Song name
# A B C D E F G H I J K L M N O P Q R S T U V W X Y Z

Spoon - Reservations tab

Band: Spoon
Song:Reservations


tabbed by jam9383@yahoo.com


Verse

x2
e--------------------------|------------------------------------------|
B-14----14-----14----14----|------------------------------------------|
G--------------------------|------------------------------------------|
D----11----11-----11----11-|------------------------------------------|
A--------------------------|-9/11-------------------------------------|
E--------------------------|------------------------------------------|

Bridge

e------------------------------|--------------------------------------|
B------------------------------|--------------------------------------|
G--------------8-8-8h9-8-------|-------------8/-----------------------|
D-8-8-----8-9--9-9-------9-----|---------8-9--------------------------|
A-9-9---9----------------------|-----9-9------------------------------|
E------------------------------|--------------------------------------|

Verse

e---------------------------------------------------------------------|
B-14----14----14----14------------------------------------------------|
G------------------------------------------8-8-8-8-8-9-8--------------|
D----11----11----11----11---8h9-11-8h9-11--9-9------------------------|
A---------------------------------------------------------------------|
E---------------------------------------------------------------------|

e--------------------------|------------------------------------------|
B-14----14-----14----14----|------------------------------------------|
G--------------------------|------------------------------------------|
D----11----11-----11----11-|------------------------------------------|
A--------------------------|-9/11-------------------------------------|
E--------------------------|------------------------------------------|

Outro

let first 3 strings ring
e--9-------------------------9----------------------------------------|
B--9-------------------------9----------------------------------------|
G--10------------------------10---------------------------------------|
D--11-11-11-11-11-11-11-11---11-11-11-11-11-11-11-11-11---------------|
A--11-11-11-11-11-11-11-11---11-11-11-11-11-11-11-11-11---------------|
E--9--9--9--9--9--9--9--9----9--9--9--9--9--9--9--9--9----------------|

e--7----------------7-------------------------------------------------|
B--7----------------7-------------------------------------------------|
G--8----------------8-------------------------------------------------|
D--9-9-9-9-9-9-9-9--9-9-9-9-9-9-9-9-----------------------------------|
A--9-9-9-9-9-9-9-9--9-9-9-9-9-9-9-9-----------------------------------|
E--7-7-7-7-7-7-7-7--7-7-7-7-7-7-7-7-----------------------------------|

any comments/corrections needed contact me, please rate
Tap to rate this tab
# A B C D E F G H I J K L M N O P Q R S T U V W X Y Z