Song name
# A B C D E F G H I J K L M N O P Q R S T U V W X Y Z

Spoon - Car Radio tab

----------------------------------------------------------------------------
			     CAR RADIO - Spoon
----------------------------------------------------------------------------
Tabbed by: Alexxx
Email: hang-me-above-your-tv@hotmail.com

Tuning: Standard

Great song by a great band. Die, Lafitte.

Intro
e|-------------------------------------|
B|-------------------------------------|
G|-------------------------------------|
D|-7-----------------------------------|
A|-5--------7---------2----------------|
E|----------5---------0----------------|

Verse

e|-------------------------------------|
B|-------------------------------------|
G|-------------------------------------|
D|------x----7x------------------------|
A|--222-x----5x----7x------------------|
E|--000-x----------5x------------------|

Bridge (Mah mah mah mah mah mah)

e|-------------------------------------|
B|-------------------------------------|
G|-------------------------------------|
D|---444---445---555---554-------------|
A|---444---445---555---554-------------|
E|---222---223---333---332-------------|

Bit after (The quiet bit, then the power chords)

e|-------------------------------------|
B|-------------------------------------|
G|-------------------------------------|
D|--------------------7-77777----------|
A|--45454--5--45454---7-77777----------|
E|--------------------5-55555----------|

e|-------------------------------------|
B|-------------------------------------|
G|-------------------------------------|
D|-----------7-77777-------------------|
A|-5-45454---7-77777-------------------|
E|-----------5-55555-------------------|

e|-------------------------------------|
B|-------------------------------------|
G|-------------------------------------|
D|--7-77777--5-55555-------------------|  x 2 or 3
A|--7-77777--5-55555-------------------|
E|--5-55555--3-33333-------------------|

then intro, verse, bridge to finish.

if there is anything i missed out, shouldn't be to hard to find. song is in the key of 
rate it. britt daniel forever.
Tap to rate this tab
# A B C D E F G H I J K L M N O P Q R S T U V W X Y Z