Song name
# A B C D E F G H I J K L M N O P Q R S T U V W X Y Z

Sportfreunde Stiller - Frhling tab

Sportfreunde Stiller
Frühling

Strandard Tuning

Intro:

e|-----0-------0-----|-----0-------0-----|-----3-------3-----|
B|--0-------0-----0--|--1-------1-----1--|--3-------3-----3--|
G|-------------------|-------------------|-------------------|
D|-------------------|-------------------|-------------------|
A|-------------------|-------------------|-------------------|
E|-------------------|-------------------|-------------------|

e|-----2-------2-----|-----0-------0-----|-----0-------0-----|
B|--3-------3-----3--|--0-------0-----0--|--1-------1-----1--|
G|-------------------|-------------------|-------------------|
D|-------------------|-------------------|-------------------|
A|-------------------|-------------------|-------------------|
E|-------------------|-------------------|-------------------|

e|-----3-------3-----||
B|--3-------3-----3--||
G|-------------------||
D|-------------------||
A|-------------------||
E|-------------------||

Tap to rate this tab
# A B C D E F G H I J K L M N O P Q R S T U V W X Y Z