Song name
# A B C D E F G H I J K L M N O P Q R S T U V W X Y Z

Sportfreunde Stiller - Fast Wie Von Selbst tab

Intro+Interlude(after chorus):

||---8---7---8-|---8---7---7---|-----------------|---------------|
||-8---8---8---|-8---8---8---8-|-8h10-8-8h10-8-5-|-------5-8-5---|
||-------------|---------------|-----------------|-7-5-7-------7-|
||-------------|---------------|-----------------|---------------|
||-------------|---------------|-----------------|---------------|
||-------------|---------------|-----------------|---------------|


|-----8---7---8-|---8---7---7---|----------------------||
|-5h8---8---8---|-8---8---8---8-|-8h10-8-8h10-8-5------||
|---------------|---------------|-----------------7-5--||
|---------------|---------------|----------------------||
|---------------|---------------|----------------------||
|---------------|---------------|----------------------||



Verse:

  C             C               G       E         F                          

|-------------|---------------|-----------------|---------------|
|-------------|---------------|-----------------|---------------|
|-5-----------|-5-------------|-7-------4-------|-5-------------|
|-5-----------|-5-------------|-9-------5-------|-7-------------|
|-7-----------|-7-------------|-10------7-------|-8-------------|
|-------------|---------------|-----------------|---------------|
   Fast wie...   fast wie...    wir...gekommen... stehen wir...

Chorus:

  C             G               Em                F

|-------------|---------------|-----------------|---------------|
|-------------|---------------|-----------------|---------------|
|-5-----------|-7-------------|-4---------------|-5-------------|
|-5-----------|-9-------------|-5---------------|-7-------------|
|-7-----------|-10------------|-7---------------|-8-------------|
|-------------|---------------|-----------------|---------------|

   Fast wie...   fast wie...    niemals...    möchte...   

That is it. You can just strum those three strings once, that should be your whole job. 
Most important for you is to play intro and interlude, the rest is played mostly by rythm guitar.
Tap to rate this tab
 
# A B C D E F G H I J K L M N O P Q R S T U V W X Y Z