Sportfreunde Stiller - Ohne Deine Liebe tab

http://www.youtube.com/watch?v=99Wz-29E36c

----------------------------------------------------|
----8-----8----8---------10------10-----7-----------|
---9-9---9-9--9-9------11--11--11--11--8-8----------|
-10----10----9---9~--11------11-------9---9~--------|
----------------------------------------------------|
----------------------------------------------------|

---------------------------------------------|
----8-----8----8----8----10-----10----7------|
---9-9---9-9--9-9--9-9--11-11--11-11-8-8-----| 2x
-10----10----9----9----11-----11----9--------|
---------------------------------------------|
---------------------------------------------|


-------------2-----------------2---2---2-----|
----1-------3-3-3-----1-------3-3-3-3-3-3-3--|
---2-2-2---2---2-----2-2-2---2---2---2---2---|
--2---2---0---------2---2---0----------------|
-0-----------------0-------------------------|
---------------------------------------------|


      C      E
---------------------------------------------|
------1-------0------------------------------|
-----0-0-0---0-0-0-  --> 3xC --> 1xE --> 2xC-|
----2---2---2---2----------------------------|
-0h3-------2---------------------------------|
---------------------------------------------|
Tap to rate this tab
 
# A B C D E F G H I J K L M N O P Q R S T U V W X Y Z