Song name
# A B C D E F G H I J K L M N O P Q R S T U V W X Y Z

Sportfreunde Stiller - Applaus Applaus tab

Artist: Sportfreunde Stiller
Titel: Applaus Applaus
(Standard Thuning)

e|-3-3-7-3---3-7-3-|-3-8---10-8-7h8-7---|---3-7-3-3-3-7-3-|-3-3-8-10---8-7h8-7-|
B|-----------------|--------------------|-----------------|--------------------|
G|-----------------|--------------------|-----------------|--------------------|
D|-----------------|--------------------|-----------------|--------------------|
A|-----------------|--------------------|-----------------|--------------------|
E|-----------------|--------------------|-----------------|--------------------|

e|-3-3-7-3---3-7-3-|-3-8---10-8-7h8-7---|---3-7-3-3-3-7-3-|-3-3-8-10---8-7h8-7-|
B|-----------------|--------------------|-----------------|--------------------|
G|-----------------|--------------------|-----------------|--------------------|
D|-----------------|--------------------|-----------------|--------------------|
A|-----------------|--------------------|-----------------|--------------------|
E|-----------------|--------------------|-----------------|--------------------|

e|-0-0-2-3-3-----3-|-3-5-3-2----2h3-2-0-|-0-0-2-3-3-----3-|-3-2-2-2-2-2-2-2-|
B|-----------------|--------------------|-----------------|-----------------|
G|-----------------|--------------------|-----------------|-----------------|
D|-----------------|--------------------|-----------------|-----------------|
A|-----------------|--------------------|-----------------|-----------------|
E|-----------------|--------------------|-----------------|-----------------|

e|---0-3-0---2-5-2-|---3-7-3-10-8-7--|---0-3-0---2-5-2-|-2h3-3-3-3-3-3-3--0-|
B|-----------------|-----------------|-----------------|--------------------|
G|-----------------|-----------------|-----------------|--------------------|
D|-----------------|-----------------|-----------------|--------------------|
A|-----------------|-----------------|-----------------|--------------------|
E|-----------------|-----------------|-----------------|--------------------|

e|---0-3-0---3-----|-----3-----2-----|---0-3-0---3-----|-----3-------2---|
B|-1-------0-------|-0-3---------3---|-1-------0-------|-0-3-------3---3-|
G|-----------------|---------2-----2-|-----------------|---------2-------|
D|-----------------|-----------------|-----------------|-----------------|
A|-----------------|-----------------|-----------------|-----------------|
E|-----------------|-----------------|-----------------|-----------------|
Tap to rate this tab
# A B C D E F G H I J K L M N O P Q R S T U V W X Y Z