Song name
# A B C D E F G H I J K L M N O P Q R S T U V W X Y Z

Sportfreunde Stiller - Applaus Applaus tab

-----------------------------------------------------------------------------
                             Applaus Applaus - Sportfreunde Stiller
-----------------------------------------------------------------------------
Tabbed by: TheGuitarrer

Tuning: Standard Tuning



e|---------------------------------------------------------------------|
B|--------12-------------12-------------13----15-13-12h13-12-----------|
G|-12-12-----12----12-12----12----12-12----12--------------------------|
D|---------------------------------------------------------------------| 2x
A|---------------------------------------------------------------------|
E|---------------------------------------------------------------------|


e|---------------------------------------------------------------------|
B|---------------------------------------------------------------------|
G|-9-9-11-12-12--------------12-12-14-12-11---11-11h12-11--------------|
D|---------------------------------------------------------------------|
A|---------------------------------------------------------------------|
E|---------------------------------------------------------------------|


e|---------------------------------------------------------------------|
B|---------------------------------------------------------------------|
G|-9-9-11-12-12--------------12-11h12-11--11-11-11-11-11-11------------|
D|---------------------------------------------------------------------|
A|---------------------------------------------------------------------|
E|---------------------------------------------------------------------|


e|---------------------------------------------------------------------|
B|-------------10---------------12----15-13-12-12----------------------|
G|-9-12-9---11----11---------12----12----------------------------------|
D|---------------------------------------------------------------------|
A|---------------------------------------------------------------------|
E|---------------------------------------------------------------------|

e|---------------------------------------------------------------------|
B|-------------10------------------------------------------------------|
G|-9-12-9---11----11---------11h12-12-12-12-12-12-12-12-12-------------|
D|---------------------------------------------------------------------|
A|---------------------------------------------------------------------|
E|---------------------------------------------------------------------|
Tap to rate this tab
 
# A B C D E F G H I J K L M N O P Q R S T U V W X Y Z