Song name
# A B C D E F G H I J K L M N O P Q R S T U V W X Y Z

Sportfreunde Stiller - Eine Liebe Die Nie Endet tab

Highlighted       Show chord diagrams
Tuning: EADGBe


Intro:

  G5      F5      A5      D5
|------------------------------|
|------------------------------|
|--------------------------7---|     2x
|-5-------3-------7--------7---|
|-5-------3-------7--------5---|
|-3-------1-------5------------|


Verse:


  G5      F5      A5      D5
|------------------------------|
|------------------------------|
|--------------------------7---|
|-5-------3-------7--------7---|
|-5-------3-------7--------5---|
|-3-------1-------5------------|

Chorus:

  G5             D5             A5               C5

  Eine Liebe die unter Garantie nie zu ende geht egal was auch geschieht

|------------------------------------------------------------|
|------------------------------------------------------------|
|----------------7-------------------------------5-----------|
|-5--------------7--------------7----------------5-----------|
|-5--------------5--------------7----------------3-----------|
|-3-----------------------------5----------------------------|

Bridge:

G5 F5 A5 D5


Verse:

G5 F5 A5 D5

Chorus:

G5 D5 A5 C5

Bridge:

G5 F5 A5 D5

Interlude:

A5 G5 D5 D5


Prechorus:

G5 D5 A5 C5


Chorus:

G5 D5 A5 C5


Outro:

G5


just take this tabs if you play with an e-guitar

Fabi
Tap to rate this tab
# A B C D E F G H I J K L M N O P Q R S T U V W X Y Z