Song name
# A B C D E F G H I J K L M N O P Q R S T U V W X Y Z

Sportfreunde Stiller - Die Frisur Von Bjoern Borg tab

Help us improve GuitareTab! Take a short survey!
-----------------------------------------------------------------
Die Frisur von Bjoern Borg  Sportfreunde Stiller
-----------------------------------------------------------------
Tabbed by: william II
Email: SB490@gmx.de
Tuning: Regular
Intro/Riff1: x4 (Clean with a lot of Reverb)
e|---------------------------------------------------------------|
B|---------------------------------------------------------------|
G|-----9-----9--------6------------------------------------------|
D|-7-7---7-6---6--4-4---44\0-05/7------------------------------|
A|---------------------------------------------------------------|
E|---------------------------------------------------------------|

Then Bass Riff2

G|------9-----9--------------------------------------------------|
D|--7-7---7-6---6--4-4-4-4-4-0-0-0-------------------------------|
A|---------------------------------------------------------------|
E|---------------------------------------------------------------|

This goes on all through the first Verse:


Verse 1:

Schon in der Schule war ich einer der Guten 
Ich war flink und agil und lie die anderen bluten 
Ich war schlau und gerissen 
Hilfsbereit und verbissen 
Perfekt die Statur und rein mein Gewissen: 

DD C# H E (Distorted)

Refrain:

             D         A    
Ich hab die Beine von Briegel
         A         E 
Und die Arme von Pfaff 
          D                A
Hab den Geist von Gnther Netzer
      A             E 
Habe Mut und auch Kraft
           D               A 
Hab das Gesicht von Hansi Mller
      A              E 
Bin kokett und auch schn
             D              A
Doch da ist was das mich besorgt: 
                              Riff1 
Ich hab die Frisur von Bjrn Borg 

Verse 2: (Riff1 all the way through)

Auf meine Treter aus Leder 
Und mein Trikot aus Madrid 
Waren viele Jungs neidisch 
Und die Mdchen verrckt 
Ich war spendabel per s 
Und willkommen auf jedem Fest 
Konnte zaubern wie Pel 
Und trinken wie George Best

DD C# H E

Refrain: 

             D         A    
Ich hab die Beine von Briegel
         A         E 
Und die Arme von Pfaff 
          D                A
Hab den Geist von Gnther Netzer
      A             E 
Habe Mut und auch Kraft
           D               A 
Hab das Gesicht von Hansi Mller
      A              E 
Bin kokett und auch schn
             D              A
Doch da ist was das mich besorgt: 

e|----------------------------------------------|
B|----------------------------------------------|
G|-----------------------------9-9-9-9-9-9------|
D|-----------------------------9-9-9-9-9-9------|
A|--000000--5-5--7777777-------7-7-7-7-7-7------|
E|----------------------------------------------|


     E                      
Ich war um meinen Kopfschmuck
          E                
Wirklich nicht zu beneiden
      E                                      
Also ging ich umgehend mal zum Haareschneiden
      E                                                         
Vielleicht die-die-die Lockenpracht von Valderama
      E                             
Del Haye's Matte wr wahrscheinlich 
Auch kein Drama 
Riff1                                        (mute)
Doch mein Friseur meinte ich wre der Checker 
Mit der Frisur von Boris Becker

DD C# H E 

Refrain:

             D         A    
Ich hab die Beine von Briegel
         A         E 
Und die Arme von Pfaff 
          D                A
Hab den Geist von Gnther Netzer
      A             E 
Habe Mut und auch Kraft
           D               A 
Hab das Gesicht von Hansi Mller
      A              E 
Bin kokett und auch schn
             D              A    (Mute)
Doch da ist was das mich besorgt: 

... Ich will lieber wieder 
Die Frisur von Bjrn Borg!!!!!!!!!


| /  slide up
| \  slide down
| h  hammer-on
| p  pull-off
| ~  vibrato
| +  harmonic
| x  Mute note

Related for Die Frisur Von Bjoern Borg tab