Song name
# A B C D E F G H I J K L M N O P Q R S T U V W X Y Z

Sportfreunde Stiller - Ein Kleiner Schritt tab

Help us improve GuitareTab! Take a short survey!
Intro:

E:|--0----0-|--0--2----|--2--3--5--|--7--3----7--5--3--|--2---2--3--|-0---|
B:|-0----0--|-0-----0--|-----------|-------------------|------------|-----|
G:|---------|----------|-----------|-------------------|------------|-----|
D:|---------|----------|-----------|-------------------|------------|-----|
A:|---------|----------|-----------|-------------------|------------|-----|
E:|---------|----------|-----------|-------------------|------------|-----|

Verse:

e                    h                   A     
Es ist geradezu erstrebenswert, da uns Gutes widerfhrt
              G
wir doch an Freundlichkeit Unterernhrte sind.
e             h               A
Geradezu ein Glcksfall, sozusagen Endsozial
G
fr die Zukunft optimal.


Refrain:          (x2)  

     e                    h
Willkommen, willkommen in einer neuen Zeit.
      D                            A
Ein kleiner Schritt fr uns, ein groer Schritt fr die 

Menschlichkeit.



Verse:

    e                       h                  A
Es sollte, fr jeden die Maxime sein, la die Diebe rein,
         G
in euer live Design.
    e                      h                A
Es sollte, leicht von der Hand gehen, damit alle die am Rand 

stehen,
 G
wieder neues Land sehen.


Refrain:          (x2)  

     e                    h
Willkommen, willkommen in einer neuen Zeit.
      D                            A
Ein kleiner Schritt fr uns, ein groer Schritt fr die 

Menschlichkeit.


Riff to Refrain 2:          (2x)

E:|-0----3--5--7--|--7--1514--|--7--1412--|
B:|---------------|------------|------------|
G:|---------------|------------|------------|
D:|---------------|------------|------------|
A:|---------------|------------|------------|
E:|---------------|------------|------------|


Bridge:          

e  C  D  G  A

then:          (2x) 

E:|--0----0-|--0--2----|--2--3--5--|--7--3----7--5--3--|--2---2--3--|-0---|
B:|-0----0--|-0-----0--|-----------|-------------------|------------|-----|
G:|---------|----------|-----------|-------------------|------------|-----|
D:|---------|----------|-----------|-------------------|------------|-----|
A:|---------|----------|-----------|-------------------|------------|-----|
E:|---------|----------|-----------|-------------------|------------|-----|


Refrain:          (x2)  

     e                    h
Willkommen, willkommen in einer neuen Zeit.
      D                            A
Ein kleiner Schritt fr uns, ein groer Schritt fr die 

Menschlichkeit.


Riff to Refrain 2:          (2x)

E:|-0----3--5--7--|--7--1514--|--7--1412--|
B:|---------------|------------|------------|
G:|---------------|------------|------------|
D:|---------------|------------|------------|
A:|---------------|------------|------------|
E:|---------------|------------|------------|
Related for Ein Kleiner Schritt tab