Song name
# A B C D E F G H I J K L M N O P Q R S T U V W X Y Z

Sports - Orioles Magic tab

Help us improve GuitareTab! Take a short survey!
Highlighted       Show chord diagrams
-------------------------------------------------------------------------------
			ORIOLES MAGIC - Baltimore Orioles
-------------------------------------------------------------------------------
Tabbed by: Sam Krepps
Email: saamhimself2@comcast.net

Tuning: Standard

Nobody ever created a chord chart for this, so I thought I would do it.  Feel the magic.

horn intro:
e|------------------------------|
B|-------5----5----5-5----7-----|
G|-6----------------------------|
D|------------------------------|
A|------------------------------|
E|------------------------------|

A               D        E      E7     A    
Something magic happens, everytime you go
A                  D           B7                E7 
You make the magic happen, the magic of Orioles Baseball!

A                               D
When the game is close, and the Os are hot
               E               E7            A
Theres a thundering roar from 34 to give it all theyve got 
A                              D
And you never know whos gonna hear the call

transition into G:
e|--------------------|
B|--------------------|
G|--------------------|
D|--------------------|
A|-5---5---5---4---3--|
E|--------------------|

G                    D
Every game theres a different star
           B7                E
Thats the magic of Orioles Baseball! 

A
Orioles Magic! Feel it happen!
A
Orioles Magic! Feel it happen!
(dead pick)
O - R - I - O - L - E - S !

transition into D:
e|-------------------|
B|-------------------|
G|-------------------|
D|--------------2/3--|
A|-0--2--4--3--------|
E|-------------------|

D             E
Magic! Magic! Magic! Magic!

(the rest is like the first time through)

Something magic happens, everytime you go
You make the magic happen, the magic of Orioles Baseball! 

When Weaver moves and we score the runs
Nothing could be more exciting
Nothing could be more fun! 

Theres a love affair between you and the team
Youre the reason we win when we win
And you know what the magic means! 

Orioles Magic! Feel it happen!
Orioles Magic! Feel it happen!
Orioles Magic! Feel it happen!
Orioles Magic! Feel it happen!

O - R - I - O - L - E - S ! 

Magic! Magic! Magic! Magic! 

Orioles Magic! Feel it happen!

Magic! Magic! Magic! Magic! 

Something magic happens




| /  slide up
| \  slide down
| h  hammer-on
| p  pull-off
| ~  vibrato
| +  harmonic
| x  Mute note
===============================================================================
Related for Orioles Magic tab