Song name
# A B C D E F G H I J K L M N O P Q R S T U V W X Y Z

Sporty Thieves - No Pigeons tab

Help us improve GuitareTab! Take a short survey!
New Tab
Tabbed By:LPablaze@aol.com
Sporty Thieves:No Pigeons

You just play this throughout the whole song:
[-------1-------0--------------0-]   
[-----1-------1--------3-----1---]
[---2-------2--------1-----2-----]the second time thru, 
[-0----------------2-------------]only play the first three lines    
[---------0------2-------0-------]then go to the next part below
[--------------------------------]

[-3-1-0---0----]
[-------3------]
[--------------]
[--------------]
[--------------]
[--------------]
Related for No Pigeons tab