Song name
# A B C D E F G H I J K L M N O P Q R S T U V W X Y Z

Spose - Knocking On Wood tab

e----------------------------------------14-14-11-11-11-11-11-9-9-9-9-9-9-9-9--|
B-12-12-12-12-12-12-12-12-12-12-12-12-12---------------------------------------|
G------------------------------------------------------------------------------|
D------------------------------------------------------------------------------|
A------------------------------------------------------------------------------|
E------------------------------------------------------------------------------|

It does this the majority of the song, while during the chorus it does basically
the same thing one string up, as follows...

e-------------------------------------------------------------------------------|
B----------------------------------------14-14-12-12-12-12-12-10-10-10-10-10-10-|
G-12-12-12-12-12-12-12-12-12-12-12-12-12----------------------------------------|
D-------------------------------------------------------------------------------|
A-------------------------------------------------------------------------------|
E-------------------------------------------------------------------------------|

Check Spose out at http://www.sposemusic.net/
Tap to rate this tab
# A B C D E F G H I J K L M N O P Q R S T U V W X Y Z