Spraynard - Spooky Scary tab

http://www.spraynard.net/

-------------------------------------------------------------------------------
			     SPOOKY, SCARY - Spraynard
-------------------------------------------------------------------------------
Tabbed by: alittlesenough
Email: themachinerages@gmail.com

Tuning: Half-Step Down

It's a really simple song, and sounds cool acoustic too.

INTRO/VERSE CHORDS

"I'm feeling stagnant...if I make it out alive"

     E          Asus2

e|---0---------------0-----------------|
B|---0----/16--13----0-----/11--13-----|
G|---1----/X---X-----2-----/X---X------|
D|---2----/14--11----2-----/9---11-----|
A|---2---------------0-----------------|
E|---0---------------X-----------------|


"Home to an old friend...when we don't wanna"

     E               Bsus4              E

e|---0-----------------0----------------0----------------|
B|---0-----------------0----------------0----------------|
G|---1-----------------4----------------1----------------|
D|---2-----------------2----------------2----------------|
A|---2-----------------2----------------2----------------|
E|---0-----------------X----------------0----------------|

CHORUS

"Like gravity....what regret feels like"

     E               Bsus4            Asus2(x2)

e|---0------------------0-----------------0--------------------|
B|---0------------------0-----------------0--------------------|
G|---1------------------4-----------------2/9------------------|
D|---2------------------4-----------------2/9------------------|
A|---2------------------2-----------------0--------------------|
E|---0------------------X-----------------X--------------------|

BRIDGE

"I'm gonna' walk to a place...read on my tombstone"

       E

e|----0-----|
B|----0-----|
G|----1-----|
D|----2-----|
A|----2-----|
E|----0-----|


"Life is something to laugh about"

     Bsus4       Asus2

e|-----0-----------0-----------|
B|-----0-----------0-----------|
G|-----4-----------2-----------|
D|-----4-----------2-----------|
A|-----2-----------0-----------|
E|-----X-----------X-----------|

************************************

LYRICS:

I'm feeling stagnant
I'm spreading myself in
My reactions to everything around me changing
Bury myself inside my bed and inside my mind
and I'll be lucky if I make it out alive

Home to an old friend to see what he thought of the thoughts I've been thinking lately
His words put my nerves in the dirt, with an urgency in his voice he said
"With the blink of an eye we'll be waiting to die in a retirement home in Florida.
Let's get out of bed even when we don't wanna'"

Like gravity we keep pulling ourselves down
and we're waiting for something better so we can just lift it back up ourselves
Sinking every ounce of daylight, stay up every second at night time
The only thing we'll regret is not knowing what regret feels like

I'm gonna walk to a place that is not my home
I'm gonna skateboard 'till I've broken every bone
I'm gonna say "yes" when I just say "no"
When I'm dead it's gonna' read on my tombstone
"Life is something to laugh about"

Like gravity we keep pulling ourselves down
and we're waiting for something better so we can just lift it back up ourselves
Sinking every ounce of daylight, stay up every second at night time
The only thing we'll regret is not knowing what regret feels like

************************************

| /   slide up
| \   slide down
| h   hammer-on
| p   pull-off
| ~   vibrato
| +   harmonic
| x   Mute note
| b   Bend
| pb  Pre-bend
| br  Bend release
| pbr Pre-bend release
| brb Bend release bend

************************************
Tap to rate this tab
 
# A B C D E F G H I J K L M N O P Q R S T U V W X Y Z