Song name
# A B C D E F G H I J K L M N O P Q R S T U V W X Y Z

Spring Awakening - The Dark I Know Well tab

Standard Tuning

Intro and verse
Palm muted
e|---------------------------------|
B|---------------------------------|
G|---------------------------------|
D|-7-7-7-7-7-7-7-7-7-7-7-7-7-7-7-7-|
A|-7-7-7-7-7-7-7-7-7-7-7-7-7-7-7-7-|
E|-5-5-5-5-5-5-5-5-5-5-5-5-5-5-5-5-| x4

e|-------------------------------------|
B|-------------------------------------|
G|-7-7-7-10-10-10-10-------------------|
D|-7-7-7-10-10-10-10-7-7-7-7-7-7-7-7-7-|
A|-5-5-5-8--8--8--8--7-7-7-7-7-7-7-7-7-|
E|-------------------5-5-5-5-5-5-5-5-5-| x8


Chorus
e|-----------------------------------------------------------------|
B|-----------------------------------------------------------------|
G|-9-9-9-9-9-9-9-9-9-9-9-9-9-9-9-9---------------------------------|
D|-9-9-9-9-9-9-9-9-9-9-9-9-9-9-9-9-7-7-7-7-7-7-7-7-7-7-7-7-7-7-7-7-|
A|-7-7-7-7-7-7-7-7-7-7-7-7-7-7-7-7-7-7-7-7-7-7-7-7-7-7-7-7-7-7-7-7-|
E|---------------------------------5-5-5-5-5-5-5-5-5-5-5-5-5-5-5-5-|

e|---------------------------------------------------------------------------------|
B|---------------------------------------------------------------------------------|
G|-12-12-12-12-12-12-12-12-12-12-12-12-12-12-12-12-7-7-7-7-7-7-7-7-7-7-7-7-7-7-7-7-|
D|-12-12-12-12-12-12-12-12-12-12-12-12-12-12-12-12-7-7-7-7-7-7-7-7-7-7-7-7-7-7-7-7-|
A|-10-10-10-10-10-10-10-10-10-10-10-10-10-10-10-10-5-5-5-5-5-5-5-5-5-5-5-5-5-5-5-5-|
E|---------------------------------------------------------------------------------|

x2

Verse 2
PM
e|-------------------------------------|
B|-------------------------------------|
G|-7-7-7-10-10-10-10-------------------|
D|-7-7-7-10-10-10-10-7-7-7-7-7-7-7-7-7-|
A|-5-5-5-8--8--8--8--7-7-7-7-7-7-7-7-7-|
E|-------------------5-5-5-5-5-5-5-5-5-| x8

Chorus and end
e|-----------------------------------------------------------------|
B|-----------------------------------------------------------------|
G|-9-9-9-9-9-9-9-9-9-9-9-9-9-9-9-9---------------------------------|
D|-9-9-9-9-9-9-9-9-9-9-9-9-9-9-9-9-7-7-7-7-7-7-7-7-7-7-7-7-7-7-7-7-|
A|-7-7-7-7-7-7-7-7-7-7-7-7-7-7-7-7-7-7-7-7-7-7-7-7-7-7-7-7-7-7-7-7-|
E|---------------------------------5-5-5-5-5-5-5-5-5-5-5-5-5-5-5-5-|

e|---------------------------------------------------------------------------------|
B|---------------------------------------------------------------------------------|
G|-12-12-12-12-12-12-12-12-12-12-12-12-12-12-12-12-7-7-7-7-7-7-7-7-7-7-7-7-7-7-7-7-|
D|-12-12-12-12-12-12-12-12-12-12-12-12-12-12-12-12-7-7-7-7-7-7-7-7-7-7-7-7-7-7-7-7-|
A|-10-10-10-10-10-10-10-10-10-10-10-10-10-10-10-10-5-5-5-5-5-5-5-5-5-5-5-5-5-5-5-5-|
E|---------------------------------------------------------------------------------|

x4
Tap to rate this tab
# A B C D E F G H I J K L M N O P Q R S T U V W X Y Z