Guitaretab - guitar tabs
Song name
# A B C D E F G H I J K L M N O P Q R S T U V W X Y Z

Spring Awakening - My Junk tab

My Junk - Spring Awakening

tuning: standard
the strumming isn't tabbed out, listen to the song for strumming patterns


My Junk Ė Spring Awakening

VERSE 1:
e---0---0---0---0---0---0---0---0----------------------|
B---0---2---0---2---0---2---0---2---3---2---0----------|
G---2---2---2---2---2---2---2---2-----------------2----|
D---2---2---2---2---0---0---0---0----------------------|
A---X---X---X---X---X---X---X---X----------------------|
E---X---X---X---X---X---X---X---X----------------------|
	In the midst of this nothing, this miss of a life,
	Still thereís this wanting just to see you go by.

                      F#m
e---0---X---0---X------2---------X-|
B---0---2---0---2------2---------3-|
G---2---2---2---2------2---------2-|
D---0---0---0---0------4---------0-|
A---0---0---0---0------4-----------|
E---3---3---3---3------2-----------|
	Itís almost like loviní, sad as that is,
	May not be cool, but itís so where I live.

e---0---0---0---0---0---0---0---0----------------------|
B---0---2---0---2---0---2---0---2---3---2---0----------|
G---2---2---2---2---2---2---2---2-----------------2----|
D---2---2---2---2---0---0---0---0----------------------|
A---X---X---X---X---X---X---X---X----------------------|
E---X---X---X---X---X---X---X---X----------------------|
	Itís like Iím your lover, or more like your ghost,
	I spend the day wonderiní what you do, where you go.

                      F#m        D
e---0---X---0---X------2---------5-|
B---0---2---0---2------2---------5-|
G---2---2---2---2------2---------7-|
D---0---0---0---0------4---------7-|
A---0---0---0---0------4---------5-|
E---3---3---3---3------2---------5-|
	I try and just kick it, but what can I do?
	Weíve all got our junk, and my junk is you.

CHORUS:

    E           Bm           G/D          F#m     D    A-ish   Bm
e---0------------2------------X------------2------5------0------2-|
B---0------------3------------3------------2------5------2------3-|
G---1------------4------------2------------2------7------2------4-|
D---2------------4------------0------------4------7------2------4-|
A---2------------2------------X------------4------5------4------2-|
E---0------------0------------3------------2------5------0------0-|

	See us winter walking after a storm,
	Itís chill in the wind, but itís warm in your arms
	We stop all snow line, may not be true
	Weíve all got our junk, and my junk is you
[ Tab from: http://www.guitaretab.com/s/spring-awakening/182530.html ]
VERSE 2:
e---0---0---0---0---0---0---0---0----------------------|
B---0---2---0---2---0---2---0---2---3---2---0----------|
G---2---2---2---2---2---2---2---2-----------------2----|
D---2---2---2---2---0---0---0---0----------------------|
A---X---X---X---X---X---X---X---X----------------------|
E---X---X---X---X---X---X---X---X----------------------|
	Well, youíll have to excuse me, I know itís so off.
	I love when you do stuff thatís rude and so wrong.

                      F#m
e---0---X---0---X------2---------X-|
B---0---2---0---2------2---------3-|
G---2---2---2---2------2---------2-|
D---0---0---0---0------4---------0-|
A---0---0---0---0------4-----------|
E---3---3---3---3------2-----------|
	I go up to my room, turn the stereo onÖ
	Shoot up some you in the you of some song.

e---0---0---0---0---0---0---0---0----------------------|
B---0---2---0---2---0---2---0---2---3---2---0----------|
G---2---2---2---2---2---2---2---2-----------------2----|
D---2---2---2---2---0---0---0---0----------------------|
A---X---X---X---X---X---X---X---X----------------------|
E---X---X---X---X---X---X---X---X----------------------|
	I lie back just driftin' and play out these scenes
	I ride on the rush all the hopes all the dreams.

                      F#m        D
e---0---X---0---X------2---------5-|
B---0---2---0---2------2---------5-|
G---2---2---2---2------2---------7-|
D---0---0---0---0------4---------7-|
A---0---0---0---0------4---------5-|
E---3---3---3---3------2---------5-|
	I May be neglecting the things I should do.
	 We've all got our junk, and my junk is you.

CHORUS:

    E           Bm           G/D          F#m     D    A-ish   Bm
e---0------------2------------X------------2------5------0------2-|
B---0------------3------------3------------2------5------2------3-|
G---1------------4------------2------------2------7------2------4-|
D---2------------4------------0------------4------7------2------4-|
A---2------------2------------X------------4------5------4------2-|
E---0------------0------------3------------2------5------0------0-|

	 See we still keep talkin' after you're gone.
	 You still with me then feels so good in my arms.
	 They say you go blind, maybe it's true.
	 We've all got our junk, and my junk is you.

   G/D          F#m     D    A-ish   Bm        G/D
e---X------------2------5------0------2---------X--X--X-|
B---3------------2------5------2------3---------3--3--3-|
G---2------------2------7------2------4---------2--2--2-|
D---0------------4------7------2------4---------0--0--0-|
A---X------------4------5------4------2---------X--X--X-|
E---3------------2------5------0------0---------3--3--3-|

	 It's like we stop time. What can I do?
	 We've all got our junk, and my junk is you.
	 My junk is you.
	 My junk is you.
	 You. You. You.
Related for My Junk tab