Song name
# A B C D E F G H I J K L M N O P Q R S T U V W X Y Z

Spring Awakening - Mama Who Bore Me tab

Mama Who Bore Me
Spring Awakening

Capo on 5th fret.  All fret numbers relative to capo.

Chords:

E        022100
Esus4    022200
G6       3x2030
Dadd9    200230 (version I)
         x20230 (version II)
Cadd9    032030
A        002220
Asus4    002230

Part I

   E         G6        Dadd9     A
e------0---------0-----------------------0-----|
B--------0---------3-------3---------0h2---2---|
G----------0---------0-------2---------------2-|
D----2---------2---------0-----0---2-----------|
A--------------------------------0-------------|
E--0---------3---------2-----------------------|

   E         G6        Dadd9     A
e------0---------0----------------------------|
B--------0---------3-------3--------2p0-------|
G----------0---------0-------2----------2-----|
D----2---------2---------0-----0----------2---|
A--------------------------------0----------2-|
E--0---------3---------2----------------------|

   E         G6        Dadd9     A
e------0-------------------0-------------0-----|
B--------0-------3-----------3-------0h2---2---|
G----------0-------0-----------2-------------2-|
D----2---------2-----0---0---------2-----------|
A--------------------------------0-------------|
E--0---------3---------2-----------------------|

   E          G6        Dadd9     A
e-------0-------------------0-----------------|
B---------0-------3-----------3-----2p0-------|
G-----------0-------0-----------2-------2-----|
D----2----------2-----0---0---------------2---|
A---------------------------------0---------0-|
E--0----------3---------2---------------------|


Part II

   Cadd9     Dadd9     Asus4     A
e------0-----------------------0--------------|
B--------3-------3---------3-------2p0--------|
G----------0-------2---------2---------2------|
D----2---------0-----0---2-------2-------2----|
A--3---------2---------0-------------------0--|
E---------------------------------------------|

   Cadd9     Dadd9     Esus4       E
e------0-------------------0-----0------------|
B--------3-------3----------------------------|
G----------0-------2-----------2-----1--------|
D----2---------0-----0---2---2-----2---2------|
A--3---------2--------------------------------|
E--0-------------------0----------------------|


   Cadd9     Dadd9     Asus4     A
e------0-----------------------0--------------|
B--------3-------3---------3-------2p0--------|
G----------0-------2---------2---------2------|
D----2---------0-----0---2-------2-------2----|
A--3---------2---------0-------------------0--|
E---------------------------------------------|

   Cadd9     Dadd9     Esus4    E
e------0-------------------0----0-------------|
B--------3-------3---------0----0-------------|
G----------0-------2-------2----1-------------|
D----2---------0-----0---2-2----2-------------|
A--3---------2-------------2----2-------------|
E--0-------------------0---0----0-------------|
                           *Listen to song for strum pattern

Part III

Here (and on the last two chords or Part II) specific picking
goes out the window.  Instead sort of combine strumming the chords
and following the basic picking pattern from Part I.

Chord progression is the same as Part I until the very end.
The last line is:


Cadd9        Dadd9     Esus4      E
"No sleep in Heaven or Bethlehem."

Have fun with this song.  If anyone ever has the patience to completely tab
out the last verse or finds any inaccuracies in this tab, let me know.
Tap to rate this tab
 
# A B C D E F G H I J K L M N O P Q R S T U V W X Y Z