Spring Awakening - Totally Fucked chords

Highlighted       Show chord diagrams
Totally Fucked
I'm pretty sure this is right, just listen to the song for strumming patterns.

Intro:
e|------------|
b|------------|
g|--333333333-|
D|--333333333-|x2
A|--111111111-|
E|------------|

Verse:
   Bb    F       Ab    Bb
e|-1-----1----|--4-----1---|
b|-3-----1----|--4-----3---|
g|-3-----2----|--5-----3---|
D|-3-----3----|--6-----3---|
A|-1-----3----|--6-----1---|
E|-x-----1----|--4-----x---|

Monologue: But the thing that..."

      F		   Ab
e|----x-------|----x-------|
b|----1-------|----4-------|
g|----2-------|----5-------|
D|----3-------|----6-------|x2
A|1-1-3-------|4-4-6-------|
E|----1-------|----4-------|

Verse

Chorus:

   Bb    F       Ab    Bb
e|-1-----1----|--4-----1---|
b|-3-----1----|--4-----3---|
g|-3-----2----|--5-----3---|
D|-3-----3----|--6-----3---|
A|-1-----3----|--6-----1---|
E|-x-----1----|--4-----x---|

Blah Blah:
      F		   Ab
e|----x-------|----x-------|
b|----1-------|----4-------|
g|----2-------|----5-------|
D|----3-------|----6-------|
A|1-1-3-------|4-4-6-------|
E|----1-------|----4-------|

Intro

Verse

Chorus

Interlude:

e|------------|
b|------------|
g|------------|
D|------------|
A|-6-6--------|
E|-------6~---|

Chorus

Blah Blah #2:
   Bb		F
e|------------|------------|
b|------------|------------|
g|3-3---------|------------|
D|3-3---------|3-3---------|
A|1-1---------|3-3---------|
E|------------|1-1---------|

   Ab		Bb
e|------------|------------|
b|------------|------------|
g|------------|-3----------|
D|6-6---------|-3----------|
A|6-6---------|-1----------|
E|4-4---------|------------|

   Bb		F
e|------------|------------|
b|------------|------------|
g|-3----------|------------|
D|-3----------|-3----------|
A|-1----------|-3----------|
E|------------|-1----------|

   Ab		Bb
e|------------|------------|
b|------------|-3----------|
g|-6----------|-3----------|
D|-6----------|-1----------|
A|-4----------|------------|
E|------------|------------|

"Totally Fucked":
       Bb
e|------------|
b|------------|
g|------------|
D|-----8------|
A|6-6--8------|
E|-----6------|
Tap to rate this tab
 
# A B C D E F G H I J K L M N O P Q R S T U V W X Y Z