Song name
# A B C D E F G H I J K L M N O P Q R S T U V W X Y Z

Spring Awakening - All Thats Known tab

Standard Tuning

Nothing really hard

Blank spots are rests

~ means let ring

I couldn't find tabs with the guitar part (It's not chords). I took these tabs 
directly from the sheet music. Let me know if you find any problems.


E|---6-8-6---6-8-6-|---6-8-6---6-8-6-|-
B|-8-------8-------|-8-------8-------|-
G|-----------------|-----------------|-
D|-----------------|-----------------|-
A|-----------------|-----------------|-
E|-----------------|-----------------|-



E|---6-8-6---6-8-6-|---6-8-6---6-8-6-|---6-8-6---6-8-6-|---6-8-6---6-8-6-|-
B|-8-------8-------|-8-------8-------|-8-------8-------|-8-------8-------|-
G|-----------------|-----------------|-----------------|-----------------|-
D|-----------------|-----------------|-----------------|-----------------|-
A|-----------------|-----------------|-----------------|-----------------|-
E|-----------------|-----------------|-----------------|-----------------|-



E|---5-6-5---5-6-5-|---5-6-5---5-6-5-|-----------------|-----------------|-
B|-6-------6-------|-6-------6-------|---5-6-5---5-6-5-|---5-6-5---5-6-5-|-
G|-----------------|-----------------|-5-------5-------|-5-------5-------|-
D|-----------------|-----------------|-----------------|-----------------|-
A|-----------------|-----------------|-----------------|-----------------|-
E|-----------------|-----------------|-----------------|-----------------|-



E|---6-8-6---6-8-6-|---6-8-6---6-8-6-|---6-8-6---6-8-6-|---6-8-6---6-8-6-|-
B|-8-------8-------|-8-------8-------|-8-------8-------|-8-------8-------|-
G|-----------------|-----------------|-----------------|-----------------|-
D|-----------------|-----------------|-----------------|-----------------|-
A|-----------------|-----------------|-----------------|-----------------|-
E|-----------------|-----------------|-----------------|-----------------|-



E|---5-6-5---5-6-5-|---5-6-5---5-6-5-|-----------------|-----------------
B|-6-------6-------|-6-------6-------|---5-6-5---5-6-5-|---5-6-5---5-6-5-
G|-----------------|-----------------|-5-------5-------|-5-------5-------
D|-----------------|-----------------|-----------------|-----------------
A|-----------------|-----------------|-----------------|-----------------
E|-----------------|-----------------|-----------------|-----------------



E|-----------------|-----------------|-----------------|-----------------|---
B|-----------------|-----------------|-----------------|-----------------|---
G|-----------------|-----------------|-----------------|-----------------|---
D|-----------------|-----------------|-----------------|-----------------|---
A|-----------------|-----------------|-----------------|-----------------|---
E|-----------------|-----------------|-----------------|-----------------|---



E|-----------------|-----------------|-----------------|-----------------|---
B|-----------------|-----------------|-----------------|-----------------|---
G|-----------------|-----------------|-----------------|-----------------|---
D|-----------------|-----------------|-----------------|-----------------|---
A|-----------------|-----------------|-----------------|-----------------|---
E|-----------------|-----------------|-----------------|-----------------|---



E|---6-8-6---6-8-6-|---6-8-6---6-8-6-|---6-8-6---6-8-6-|---6-8-6---6-8-6-|-
B|-8-------8-------|-8-------8-------|-8-------8-------|-8-------8-------|-
G|-----------------|-----------------|-----------------|-----------------|-
D|-----------------|-----------------|-----------------|-----------------|-
A|-----------------|-----------------|-----------------|-----------------|-
E|-----------------|-----------------|-----------------|-----------------|-



E|---5-6-5---5-6-5-|---5-6-5---5-6-5-|-----------------|-----------------|-
B|-6-------6-------|-6-------6-------|---5-6-5---5-6-5-|---5-6-5---5-6-5-|-
G|-----------------|-----------------|-5-------5-------|-5-------5-------|-
D|-----------------|-----------------|-----------------|-----------------|-
A|-----------------|-----------------|-----------------|-----------------|-
E|-----------------|-----------------|-----------------|-----------------|-



E|-----------------|-----------------|-----------------|------------------|-
B|-----------------|-----------------|-----------------|------------------|-
G|-----------------|-----------------|-----------------|------------------|-
D|-----------------|-----------------|-----------------|------------------|-
A|-----------------|-----------------|-----------------|------------------|-
E|-----------------|-----------------|-----------------|------------------|-



E|----------------|-------------------|---------------|--------------------|-
B|----------------|-------------------|---------------|--------------------|-
G|----------------|-------------------|---------------|--------------------|-
D|----------------|-------------------|---------------|--------------------|-
A|----------------|-------------------|---------------|--------------------|-
E|----------------|-------------------|---------------|--------------------|-



E|----------------|------------------|-8~~~~~~~~~~~~~~
B|----------------|------------------|-5~~~~~~~~~~~~~~
G|----------------|------------------|----------------
D|----------------|------------------|----------------
A|----------------|------------------|----------------
E|----------------|------------------|----------------



Enjoy
Tap to rate this tab
 
# A B C D E F G H I J K L M N O P Q R S T U V W X Y Z