Song name
# A B C D E F G H I J K L M N O P Q R S T U V W X Y Z

Spring - Jan Zonder Vrees tab

Title     : Jan zonder vrees
Artist    : Spring
Album     : I don't know
Capo      : none
Setting   : E-A-D-G-B-E
Tabbed by : 
-------------------------------------------------

Title     : Jan zonder vrees
Artist    : Spring
Album     : Hell i don't know
-------------------------------------------------

Standard Tuning

Intro: 
     A   D          D        E          A
   1000 sterren...  Help mij jan zonder vrees... 
e |--x---x----------xx-------xxx--------x-----------------------|
b |--x---x----------xx-------xxx--------x-----------------------|
g |--x---7----------77-------999--------x-----------------------| 
d |--7---7----------77-------999--------7-----------------------|
a |--7---5----------55-------777--------7-----------------------|
e |--5---x----------xx-------xxx--------5-----------------------|

     A        D     E         A
    en als de nacht valt....  zal ik er staan
e |--x--------x-----x---------x---------------------------------|
b |--x--------x-----x---------x---------------------------------|
g |--x--------7-----9---------x---------------------------------|
d |--7--------7-----9---------7---------------------------------|
a |--7--------5-----7---------7---------------------------------|
e |--5--------x-----x---------5---------------------------------|

    A       D         F#m           A        E          Bm
    Help mij jan zonder vrees...    help mij jan zonder vrees
e |-xx------x--x----x--x-----------xx-------x----------x--------|
b |-xx------x--x----x--x-----------xx-------x----------x--------|
g |-xx------7--7----7--x-----------xx-------9----------11-------|
d |-77------7--7----7--4-----------77-------9----------11-------|
a |-77------5--5----5--4-----------77-------7----------9--------|
e |-55------x--x----x--2-----------55-------x----------x--------|

Verse:

Gebruik dezelfde akkoorden als bij de intro...

A   D   F#m
A   D   Bm
A   D   F#m
A   D   Bm
Bm  D  F#m
F#m   D   E  (Bm E)

Chorus:

     A   D          D        E          A
   1000 sterren...  Help mij jan zonder vrees... 
e |--x---x----------xx-------xxx--------x-----------------------|
b |--x---x----------xx-------xxx--------x-----------------------|
g |--x---7----------77-------999--------x-----------------------| 
d |--7---7----------77-------999--------7-----------------------|
a |--7---5----------55-------777--------7-----------------------|
e |--5---x----------xx-------xxx--------5-----------------------|

     A        D     E         A
    en als de nacht valt....  zal ik er staan
e |--x--------x-----x---------x---------------------------------|
b |--x--------x-----x---------x---------------------------------|
g |--x--------7-----9---------x---------------------------------|
d |--7--------7-----9---------7---------------------------------|
a |--7--------5-----7---------7---------------------------------|
e |--5--------x-----x---------5---------------------------------|
 
   A       D         F#m           A        E          Bm
    Help mij jan zonder vrees...    help mij jan zonder vrees
e |-xx------x--x----x--x-----------xx-------x----------x--------|
b |-xx------x--x----x--x-----------xx-------x----------x--------|
g |-xx------7--7----7--x-----------xx-------9----------11-------|
d |-77------7--7----7--4-----------77-------9----------11-------|
a |-77------5--5----5--4-----------77-------7----------9--------|
e |-55------x--x----x--2-----------55-------x----------x--------|


duizend sterren bij volle maan
help mij Jan zonder vrees
en als de nacht valt zal ik er staan
help mij jan zonder vrees
help mij jan zonder vrees

ik kreeg een boodschap vol magie
een noodkreet, ik wist niet van wie
er stond alleen je wordt verwacht
bij het kasteel om middernacht
wat moest ik doen, ik wist het niet meer
ik las die brief wel honderd keer

duizend sterren bij volle maan
help mij Jan zonder vrees
en als de nacht valt zal ik er staan
help mij jan zonder vrees

de nacht was koud, het weer was guur
toch koos ik voor het avontuur
net als een ridder op z'n paard
reed ik er heen in volle vaart
en magda riep en vloog uit een boom
ik zag je staan als in een droom

duizend sterren bij volle maan
help mij Jan zonder vrees
en als de nacht valt zal ik er staan
help mij jan zonder vrees

duizend sterren bij volle maan
help mij Jan zonder vrees
en als de nacht valt zal ik er staan

het leek een slot van een toneel
een oud romantisch tafereel
een liefdes kus bij het kasteel

duizend sterren bij volle maan
help mij Jan zonder vrees
en als de nacht valt zal ik er staan

eho eho
eho eho
eho eho
eho eho
eho eho

help mij jan zonder vrees!

http://www2.studio100.be/spring/site.asp
Tap to rate this tab
 
# A B C D E F G H I J K L M N O P Q R S T U V W X Y Z