Song name
# A B C D E F G H I J K L M N O P Q R S T U V W X Y Z

Springbok Nude Girls - Gang Gang tab

-------------------------------------------------------------------------------
			     Gang Gang  Springbok Nude Girls
-------------------------------------------------------------------------------
Tabbed by: OzzMars
Email: ozz@mtnloaded.co.za


Tuning: Drop D

INTRO
e|---------------------------------------------------------------------------|
B|---------------------------------------------------------------------------|
G|---------------------------------------------------------------------------|
D|-0-0-2-0-3-2-1-0-----------------------------------------------------------|
A|-0-0-2-0-3-2-1-0-let ring--------------------------------------------------|
D|-0-0-2-0-3-2-1-0-----------------------------------------------------------| x 2

PRE VERSE
e|---------------------------------------------------------------------------|
B|---------------------------------------------------------------------------|
G|---------------------------------------------------------------------------|
D|-0-0-0-0-2-3-2-0-----------------------------------------------------------|
A|-0-0-0-0-2-3-2-0-----------------------------------------------------------|
D|-0-0-0-0-2-3-2-0-----------------------------------------------------------| x 4

VERSE
e|---------------------------------------------------------------------------|
B|---------------------------------------------------------------------------|
G|---------------------------------------------------------------------------|
D|-0-0-0-0-2-3-2-0-----0-0-0-0-2-3-2-0-X-X-X-X-X-X-X-X-----------------------|
A|-0-0-0-0-2-3-2-0-x 4-0-0-0-0-2-3-2-0-X-X-X-X-X-X-X-X-x 4-------------------|
D|-0-0-0-0-2-3-2-0-----0-0-0-0-2-3-2-0-X-X-X-X-X-X-X-X-----------------------| 

e|---------------------------------------------------------------------------|
B|---------------------------------------------------------------------------|
G|---------------------------------------------------------------------------|
D|-0-0-0-0-2-3-2-0-0-0-0-0-0-0-0---------------------------------------------|
A|-0-0-0-0-2-3-2-0-0-0-0-0-0-0-0---------------------------------------------|
D|-0-0-0-0-2-3-2-0-0-0-0-0-0-0-0---------------------------------------------| x 4
CHORUS
e|---------------------------------------------------------------------------|
B|---------------------------------------------------------------------------|
G|---------------------------------------------------------------------------|
D|-0--2--3--5--3--2--3--2--0--------------0--2--3--5--3--2--3--2\5-----------|
A|-0--2--3--5--3--2--3--2--0-let ring x 3-0--2--3--5--3--2--3--2\5-let ring--|
D|-0--2--3--5--3--2--3--2--0--------------0--2--3--5--3--2--3--2\5-----------| 

REPEAT VERSE
REPEAT CHORUS

BRIDGE
e|---------------------------------------------------------------------------|
B|---------------------------------------------------------------------------|
G|---------------------------7-7-7-----7-7-7---------------------------------|
D|-0-------------------------7-7-7-----7-7-7-x 7-----------------------------|
A|-0-rapidly abt x 40--------5-5-5-----5-5-5---------------------------------|
D|-0-------------------0-0-0-------0-0---------------------------------------|
   Mute                mute       mute

e|---------------------------------------------------------------------------|
B|---------------------------------------------------------------------------|
G|---------------------------------------------------------------------------|
D|-0-0-0-2-3-2-0-0-0-0-0-0-0-0-----------------------------------------------|
A|-0-0-0-2-3-2-0-0-0-0-0-0-0-0-----------------------------------------------|
D|-0-0-0-2-3-2-0-0-0-0-0-0-0-0-----------------------------------------------| x 4

REPEAT CHORUS


| /  slide up
| \  slide down
| h  hammer-on
| p  pull-off
| ~  vibrato
| +  harmonic
| x  Mute note
===============================================================================
Tap to rate this tab
# A B C D E F G H I J K L M N O P Q R S T U V W X Y Z