Guitaretab - guitar tabs
Song name
# A B C D E F G H I J K L M N O P Q R S T U V W X Y Z

Springfield Rick - Jessies Girl tab

Song: Jessie's Girl
By: Rick Springfield

Verse:
e------------------------------|
b------------------------------|
g-7-7-----------------2-2--7-7-|
d-7-7--7-7--9-9--5-5--2-2--7-7-|
a-5-5--7-7--9-9--5-5--0-0--5-5-|
e------5-5--7-7--3-3-----------|

Chorus: (There are two riffs: this one...)
e-----------------------|
b-----------------------|
g---7-7-7---9-9-7-9-9-7-|
d---7-7-7---9-9-7-9-9-7-|
a-0-5-5-5-0-7-7-5-7-7-5-|
e-----------------------|

(and this one...)
e----------------|
b----------------|
g-----7--------7-|
d---2-7------2-7-|
a-5-0-5--5-5-0-5-|
e-3------3-3-----|

After the second chorus, you just keep palm muting an A over and over. That's the bridge.

You play the chorus a step and a half down, like this...

e-----------------------|
b-----------------------|
g---4-4-4---6-6-4-6-6-4-|
d---4-4-4---6-6-4-6-6-4-|
a---2-2-2---4-4-2-4-4-2-|
e-2-------2-------------|

Solo
[ Tab from: http://www.guitaretab.com/s/springfield-rick/18135.html ]
|---------------------------------------|------17 14----------------------|
|15 15 15 15 15 15- 15-14--14-15-- 15---|--b17------14 15 14 --15-14------|
|------------------------14------14-----|--------------------16------16 14|
|---------------------------------------|---------------------------------|
|---------------------------------------|---------------------------------|
|---------------------------------------|---------------------------------|

(Slide into
|14--14--------------15 14 12 -14 12 -  |--------- 9----------------------|
|15--15--17 15 17 15 ---------------15  |9--9--12|--10-9---9--12----------|
|---------------------------------------|10-10-11------10--10-11-14-15----|
|---------------------------------------|------------------------14-14----|
|---------------------------------------|---------------------------------|
|---------------------------------------|---------------------------------|


|---------------------------------------|---------------------------------|
|--(2)----------------------------------|---------------------------------|
|---------------------------------------|---------------------------------|
|---------------------------------------|---------------------------------|
|---------------------------------------|---------------------------------|
|---------------------------------------|---------------------------------|

Play the chorus and end with this:

e-------------------|
b-------------------|
g----------------7--|
d-2-7-7--2-7-2---7--|
a-0-5-5--0-5-0-5-5--|
e--------------3----|