Song name
# A B C D E F G H I J K L M N O P Q R S T U V W X Y Z

Springsteen Bruce - Ghost Of Tom Joad tab

Help us improve GuitareTab! Take a short survey!
-----------------------------------------------------------------------
           The ghost of tom joad - Rage Against The Machine 

Tabbed by: Lewis :-)
Email:

Tuning:DADGBe
e|--------------------------------------------------------------------------|
B|--------------------------------------------------------------------------|
G|--------------------------------------------------------------------------|
D|--------------------------------------------------------------------------|
A|-------------5------3-------0---------------------------------------------|
D|-----0--------------------------------5--------3--------0-----------------|

e|----------------------------------------|
B|----------------------------------------|
G|----------------------------------------|
D|----------------------------------------|
A|-----3-----------------0--------3~------|
D|---------------5------------------------|

e|--------------------------------------------------------------------------|
B|--------------------------------------------------------------------------|
G|--------------------------------------------------------------------------|
D|--------------------------------------------------------------------------|
A|-------------5------3-------0---------------------------------------------|
D|-----5--------------------------------5--------3--------0-----------------|


e|------------------------------------------------|
B|------------------------------------------------|
G|------------------------------------------------|
D|------------------------------------------------|
A|-----3-----------------0--------3~--------------|
D|---------------5--------------------------0-----|
~  vibrato

Related for Ghost Of Tom Joad tab