Song name
# A B C D E F G H I J K L M N O P Q R S T U V W X Y Z

Springsteen Bruce - Kittys Back tab

Help us improve GuitareTab! Take a short survey!
Not tabbed out by me, I just am very happy that I could find a full correct version.

Kitty's Back - Bruce Springsteen

  N.C.
e|----------------------8---10 /f.---8----------------------|
B|-----------------10-------------------10---8--------------|
G|-------------9--------------------------------------------|
D|----------------------------------------------------------|
A|----------------------------------------------------------|
E|----------------------------------------------------------|

     Am
e|----------|-----------------10-/f.-10--10-8--------------|
B|---8 /f./\|/\-----------10-------------------10---8------|
G|----------|----------9--------------------------------9--|
D|----------|----------------------------------------------|
A|----------|----------------------------------------------|
E|----------|----------------------------------------------|

   Em
e|----------|------------------10 /f.-8 -----------|
B|----------|-------------10-------------10---8----|
G|--9-------|---------9----------------------------|
D|----------|--------------------------------------|
A|----------|--------------------------------------|
E|----------|--------------------------------------|

   Am
e|------------|--------------10/f.-10--10--8-----------|
B|--8/f. /\/\-|---------10--------------------10--8----|
G|------------|------9---------------------------------|
D|------------|----------------------------------------|
A|------------|----------------------------------------|
E|------------|----------------------------------------|

    Em
e|------------|-------------------------------|
B|------------|-------------10----13----------|
G|-9----7/\/\/|\/-----------------------------|
D|------------|-------------------------------|
A|------------|-------------------------------|
E|------------|-------------------------------|

 
   Dm
e|---------------------------------------|
B|--15/f.---13---------------13----------|
G|--------------14------14---------------|
D|---------------------------------------|
A|---------------------------------------|
E|---------------------------------------|


   G
e|-----------------------------------------|
B|--15/f.-----------------13----15----13---|
G|---------14-------14---------------------|
D|-----------------------------------------|
A|-----------------------------------------|
E|-----------------------------------------|

   C
e|---------------------------------------|
B|--15/f.--15/f.--15/f.--15--15----13----|
G|---------------------------------------|
D|---------------------------------------|
A|---------------------------------------|
E|---------------------------------------|

   Am
e|---15/f.-------------------------------|
B|-----------------------------13--------|
G|------------------------14-------------|
D|---------------------------------------|
A|---------------------------------------|
E|---------------------------------------|

   Dm
e|--------------------------------------|
B|-----15/f.---13----------------13-----|
G|------------------14------14----------|
D|--------------------------------------|
A|--------------------------------------|
E|--------------------------------------|

   G
e|-----------------------------------------------------|
B|---15---17----15----13--------------13----15----13---|
G|-------------------------14-----14-------------------|
D|-----------------------------------------------------|
A|-----------------------------------------------------|
E|-----------------------------------------------------|
 

   F                               E7
e|-------------------------------|----------------------|
B|---15/f.--15/f.--15/f.---13----|--15/f.-/\/\/\--------|
G|-------------------------------|----------------------|
D|-------------------------------|----------------------|
A|-------------------------------|----------------------|
E|-------------------------------|----------------------|


Am7       E7sus        Am7           E7sus  Am7 E7sus Am7
Catlong sighs holdin' Kitty's black tooth
E7sus         Am7       E7       Am7               E7sus Am7 E7sus Am7
She left to marry some top cat, ain't it the cold truth

E7         Dm                        Am
And there hasn't been a tally since Sally left the alley
       Dm                                       E7sus       E  E7sus  E7
Since Kitty left with Big Pretty things have got pretty thin, yeah yeah
      Dm                        F7                      Dsus
It's tight in this business and young dudes are musclin' in

|           2x               |
| Dsus | D | D A | A A F#m E |


Am7        E7sus       Am7         E7sus  Am7  E7sus  Am7  E7sus
Jack Knife cries cause baby's in a bundle 
Am7              E7sus    Am7                 E7sus  Am7  E7sus  Am7
She goes running nightly, lightly through the jungle 
         Dm7                                Am7
And them tin cans are explodin' down in the ninety degree heat 
    Dm7                           E7sus         E  E7sus  E
Cat somehow lost his baby down on Bleeker Street 
     Dm7
It's sad but it sure is true
Gsus4          G          Gsus4         G
Cat shrugs his shoulders, sits back and sighs 



C             Em    F   G         Am
Ooh what can I do, ooh what can I do?
C             Em    F   G         Am
Ooh what can I do, ooh what can I do?

| Dm Em | F7 Em | Dm Em | F7 | E7 | Am

organ solo 6 bars: Am
guitar solo 16 bars:  Am
e|-------------------------------------------|
B|-----------13--15--15---13---15---15---13--|
G|-13/sl.14----------------------------------|
D|-------------------------------------------|
A|-------------------------------------------|
E|-------------------------------------------|

e|----------------------------------------------------|
B|--15/f.-15/f.--15---13-----13----15--15--13-15--15--|
G|------------------------14--------------------------|
D|----------------------------------------------------|
A|----------------------------------------------------|
E|----------------------------------------------------|

e|-13---13---13----15---15----15------17--17---17--17--17-|
B|--------------------------------------------------------|
G|--------------------------------------------------------|
D|--------------------------------------------------------|
A|--------------------------------------------------------|
E|--------------------------------------------------------|


Horns:
|             2x         |        2x       |      6x      |
|-----|-----|-----|------|--------|--------|--------------|
|--7--|--6--|--7--|---8--|--7--6--|--7--8--|--7--6--7--8--|
|--9--|--8--|--9--|--10--|--9--8--|--9-10--|--9--8--9--8--|
|--9--|--8--|--9--|--10--|--9--8--|--9-10--|--9--8--9-10--|
|-----|-----|-----|------|--------|--------|--------------|
|-----|-----|-----|------|--------|--------|--------------|


organ solo:                          |           4x              |
| Dm | Am | Dm | Esus | E | Esus | E | Dsus| D | D A | A A F#m E |        



Am7     E7sus     Am7       E7sus     Am7  E7sus  Am7
Catlong lies back bent on a trash can
E7sus    Am7            E7sus        Am7          E7sus   Am7  E7sus  Am7  E7sus
Flashing lights cut the night in the white cities of Maine 
         Dm7                                                   Am7
Well you better learn to move fast when you're young or you're not long around 
    Dm7                                E7sus     E  E7sus  E
Cat somehow lost his Kitty down in the city pound 



        Dm7        F7        Esus  E  Esus  E
So get right, get tight, get down
      Esus                              E
Well, who's that down at the end of the alley
Esus               E
She's been gone so long
Esus4                             E
Here she comes, here she comes, here she comes, here she comes
Esus                             E
Here she comes, here she comes, here she comes, here she comes

F#m                                         D               A
Kitty's back in town (here she comes now), Kitty's back in town (oh, oh allright)
F#m                                         D               A
Kitty's back in town (here she comes now), Kitty's back in town (oh, oh allright)
F#m                                         D               A
Kitty's back in town (here she comes now), Kitty's back in town (oh, oh allright)
F#m                                         D               A
Kitty's back in town (here she comes now), Kitty's back in town (oh, oh allright)

Dsus                   D         Dsus  D
Cat knows his Kitty's been untrue
    A                       F#m
And that she left him for a city dude
      D              E7
Well she's so soft, she's so blue
Gsus                    G     Gsus                 G
When he looks into her eyes he just sits back and sighs

C             Em7   F   G         Am
Ooh what can I do, ooh what can I do?
Ooh what can I do, ooh what can I do?
Oh oh oh oh oh, all right
Ooh-ooh-ooh-ooh-ooh, all right, ooh all right
Ooh-ooh-ooh-ooh-ooh, all right, ooh all right 
Ooh-ooh-ooh-ooh-ooh, all right, ooh all right
Ooh-ooh-ooh-ooh-ooh, all right, ooh all right

C Em7 F G Am C Em7 F G Am7

  Am  Em  Ebm Dm  G   C   E7  Am7 E7sus F7  D   A   F#m E   Dm7 Gsus F   Esus Dsus
--0---0---6---1---3---0---0---0---0-----1---2---0---2---0---1---3----1---0----3---
--1---0---7---3---0---1---0---1---3-----1---3---2---2---0---1---1----1---0----3---
--2---0---8---2---0---0---1---0---2-----2---2---2---2---1---2---0----2---2----2---
--2---2---8---0---0---2---0---2---0-----1---0---2---4---2---0---0----3---2----0---
--0---2---6-------2---3---2-------2-----3-------0---4---2-------2----3---2--------
------0-----------3-------0-------0-----1-----------2---0-------3----1---0--------


Thanks to Bosshydro@aol.com for intro and solo.
Related for Kittys Back tab