Song name
# A B C D E F G H I J K L M N O P Q R S T U V W X Y Z

Springsteen Bruce - Murder Inc tab


MURDER INC. : Motion Sickness. Album : Locate Subvert Terminate.

INTRO / VERSES.

D-----------------------------------|
A------------------12-x-12-12-12----|
F------------------10-x-10-10-10----|
C------------------11-x-11-11-11----|
G----4----4^5--4-5------------------|
D--0---0-0----0-0-------------------|


[FONT=Courier]
RIFF 1 / VERSES. Another way to play it.

D--------------------------------------|
A-----------------------12-X-12-12-12--|
F-----------------------10-X-10-10-10--|
C-----------------------11-X-11-11-11--|
G--------------------------------------|
D-0-9-0-0-9¨10-0-9-0-10----------------|

RIFF 2 / CHORUS (X 2). Let ring…

D--------------------------------------|
A-------------------------------14-----|
F-------------------------------11-----|
C-11--11-11-11^13-13-11--13-11--13-13--|
G--0---0--0--0--0--0--0---0--0---0--0--|
D--------------------------------------|

RIFF 3 / BREAK. Let ring…

D------------------------------------------|
A------------------------------------------|
F---------------------------------0--------|
C------------------------------------------|
G--6---7---8---9-9-9--7---8---9-----10-10--|
D-7---7---7---7---7--8---8---8---8----8----|
Tap to rate this tab
# A B C D E F G H I J K L M N O P Q R S T U V W X Y Z