Song name
# A B C D E F G H I J K L M N O P Q R S T U V W X Y Z

Sprung Monkey - White Trash tab

T1: Mark Norris, mnorris11@hotmail.com, Sprung Monkey, White Trash, ?
Fairly Recent

S1: Song: White Trash
Band: Sprung Monkey
Album: Mr Funny Face
Tabbed by: Mark Norris (mnorris11@hotmail.com)


Intro/Chorus                  Chord at end of riff
|----------------------------|-----|
|----------------------------|--6--|
|----------------------------|--9--|
|----------------------------|-----|
|-3p0--------6-5---5---5-4---|-----|
|------3p0---4-3-0-3-0-3-2---|-----|


Verse (It is most likely that one guitarist plays the power chord riff
       and the other plays the weird chord)
|-------------------------|
|-------------------6-----|
|-------------------9-----|
|-------------------------|
|-6-5---5---5-4-----------|
|-4-3-0-3-0-3-2-----------|
 |-----P.M-----|

Interlude *Part 1* (These are just the chords used, it's easy to work
out 
                    the strumming)
|-----------|
|-----------|
|-----------|
|-----------|
|-5--4------|
|-3--2------|


*Part 2*
|---------------|--------------------|
|---------------|--------------------|
|---------------|--------------------|
|-5-------------|--------------------|
|-3-5-----6-5---|-3------------------|
|---3-----4-3---|---3-3-3---4-3-3-3--|
 |P.M|   |P.M|   |-------P.M-------|

Tap to rate this tab
 
# A B C D E F G H I J K L M N O P Q R S T U V W X Y Z