Song name
# A B C D E F G H I J K L M N O P Q R S T U V W X Y Z

Sprung Monkey - Get Em Outta Here tab

Help us improve GuitareTab! Take a short survey!
#----------------------------------PLEASE NOTE--------------------------------#
#This file is the author's own work and represents their interpretation of the#
#song. You may only use this file for private study, scholarship, or research.#
#-----------------------------------------------------------------------------#
#-- File created with Instab - http://www.pconline.com/~smcarey/instab.html --#
#-----------------------------------------------------------------------------#

Author/Artist: Sprung Monkey
Title: Get Em  Outta Here
Album: ?
Transcribed by: Luke Lundberg
Email: kane_72@hotmail.com

easy song, have fun. any q's or comments, email me.

-2h4p2--2h4p2--2h4p2--2h4p2---------------------------------------------------
------------------------------------------------------------------------------
------------------------------------------------------------------------------
------------------------------------------------------------------------------
------------------------------------------------------------------------------
------------------------------------------------------------------------------
 just keep doing this for a while.                                            

--9-9-7-6-4-6-2---------------------------------------------------------------
------------------------------------------------------------------------------
------------------------------------------------------------------------------
------------------------------------------------------------------------------
------------------------------------------------------------------------------
------------------------------------------------------------------------------
 this bit goes along these lines kind of.                                     

------------------------------------------------------------------------------
------------------------------------------------------------------------------
------------------------------------------------------------------------------
-4-4--4-4---------------------------------------------------------------------
-4-4--4-4---------------------------------------------------------------------
-2-2--2-2---------------------------------------------------------------------
 aftr that, repeat the intro bit then the 9976462 bit then this chorus.       

------------------------------------------------------------------------------
------------------------------------------------------------------------------
------------------------------------------------------------------------------
------------------------------------------------------------------------------
------------------------------------------------------------------------------
------------------------------------------------------------------------------
 that is all the bits, just basically repeat everything after the chorus.     


Related for Get Em Outta Here tab