Song name
# A B C D E F G H I J K L M N O P Q R S T U V W X Y Z

Spunge - Girls tab

----------------------------------------------------------------------------
			     [spunge]- Girls (Intro)
----------------------------------------------------------------------------

Tabbed by: Stud_Muffin a.k.a Bryn
Email: bryn_bass@hotmail.co.uk

Tuning:

e|------------------------------------------------------|
B|------------------------------------------------------|
G|0--0-4h5p4-0------------------------------------------|
D|-------------4h5p4-0-2-0--55-5--77-7------------------|
A|--------------------------33-3--55-5--555-5-----------|
E|--------------------------------------333-3-----------|


Pretty easy and cool sounding riff, I think this is pretty much spot on.
I'm currently working out the rest of the song, I'll put it up when I do.

Any critisicms welcome
Tap to rate this tab
 
# A B C D E F G H I J K L M N O P Q R S T U V W X Y Z