Song name
# A B C D E F G H I J K L M N O P Q R S T U V W X Y Z

Spunge - Cheesy Cheerful tab

[spunge]
Cheesy Cheerful 
Standard Tuning
Tabbed out by Jay The Punk

Intro

Let each chord ring   
e-5--10-10-5-5-10-5-----------|
B-7--12-10-5-7-12-5-----------|
G-7--12-11-6-7-12-6-----------|
D-7--12-12-7-7-12-7-----------|
A-----------------------------|
E-----------------------------|
 

Verse
e-5-5--3-3--5-5--3-3--5-5--3-3--5-5--|
B-7-7--3-3--7-7--3-3--7-7--3-3--5-5--|
G-7-7--4-4--7-7--4-4--7-7--4-4--6-6--|
D-7-7--5-5--7-7--5-5--7-7--5-5--7-7--| X2 
A------------------------------------|
E------------------------------------|

Chorus Pm and release
e-----------------------------|
B-----------------------------|
G-------7---------------------|
D-9--5--7--7--9--5--7---------|
A-9--5--5--7--9--5--7---------|
E-7--3-----5--7--3--5---------|

Solo
e----------------------------------------------------------------|
B----------------------------------------------------------------|
G--7-11-12-11-7-7-11-12-11-7-7-11-12-11-7-11-7-------------------|
D----------------------------------------------------------------|
A----------------------------------------------------------------|
E----------------------------------------------------------------|

e----------------------------------------------------------------------|
B----------------------------------------------------------------------|
G-11-12-14-12-11-12-7-14-12-11-7-14-12-11-7-7-9-11-12-11-12-14-12-11-7-|
D----------------------------------------------------------------------|
A----------------------------------------------------------------------|
E----------------------------------------------------------------------|

Outro/chorus
e--------------------------------|
B--------------------------------|
G-------7-----------7------------|
D-9--5--7--7--9--5--7--7---------|
A-9--5--5--7--9--5--5--7---------|
E-7--3-----5--7--3-----5---------|


e-----------------------------|
B-----------------------------|
G-----------------------------|
D-------------12--------------|
A-------------12--------------|
E-17--15--14--10--------------|
 


Tap to rate this tab
# A B C D E F G H I J K L M N O P Q R S T U V W X Y Z