Song name
# A B C D E F G H I J K L M N O P Q R S T U V W X Y Z

Spunge - Dear John tab

[Spunge]
Dear John
Standard Tuning
Tabbed out BY Jay The Punk
I couldn't get the solo if you do tab it please let me know theevolutionofmann@hotmail.com

Intro
e--2//4xx-4xx-4---------------|
B--3//5xx-5xx-5---------------|
G--4//6xx-6xx-6---------------|X4
D-----------------------------|
A-----------------------------|
E-----------------------------|

Verse
  play once to link with solo do not play for the rest of the verse
  v   Play Verse 3 times
e-2//4xx-4xx-4xx-4xx--4xx-4xx-4xx-4xx--5xx-5xx-5xx-5xx--7xx-7xx-7xx-7xx-----|
B-3//5xx-5xx-5xx-5xx--4xx-4xx-4xx-4xx--5xx-5xx-5xx-5xx--9xx-9xx-7xx-7xx-----|
G-4//6xx-6xx-6xx-6xx--5xx-5xx-5xx-5xx--6xx-6xx-6xx-6xx--9xx-9xx-8xx-8xx-----|
D---------------------6xx-6xx-6xx-6xx--7xx-7xx-7xx-7xx--9xx-9xx-9xx-9xx-----|
A---------------------------------------------------------------------------|
E---------------------------------------------------------------------------|


Chorus           Pm
e-----------------------------|
B-----------------------------|
G-9----------9----------------|
D-9-9-7-11-9-9-9-7------------| X2
A-7-9-7-11-9-7-9-7------------|
E---7-5-9--7---7-5------------|
   

Solo

Bridge
e--4-4-5-7--4-4-5-7-7----------|
B--5-4-5-9--5-4-5-9-9----------|
G--6-5-6-9--6-5-6-9-9----------|x4
D----6-7-9----6-7-9-9----------|
A------------------------------|
E------------------------------|

On the 4th time play this
e-7xx7----------------------------|
B-7xx7----------------------------|
G-8xx8----------------------------|
D-9xx9----------------------------|X7
A---------------------------------|
E---------------------------------|

End on 
e-4----------------------------|
B-5----------------------------|
G-6----------------------------|
D-6----------------------------|
A-4----------------------------|
E------------------------------|
 
 
Tap to rate this tab
 
# A B C D E F G H I J K L M N O P Q R S T U V W X Y Z