Guitaretab - guitar tabs
Song name
# A B C D E F G H I J K L M N O P Q R S T U V W X Y Z

Spunge - Jump On Demand tab

band:[spunge]
song:Jump On Demand
album:the story so far...

intro
D-------------------------------------  --7--
A--------------------------5-55--7-77-x2--7--
E-5-4-2-0-5-4-2-0-5-4-2-0-------------  --5--
                                       let ring 
                                                                  
verse (couldnt be bothered to do the rhythm work it out from the song)
e-5---0--10--
b-5---0--10--
g-6---1--11--
[ Tab from: http://www.guitaretab.com/s/spunge/30473.html ]
chorus
   A               D       E      A               D       e
e---------------------------------------------------------------|
b---------------------------------------------------------------|
g------------------7-7-7--7-----------------------7-7-7--79-9-9-|
D--7-7-7--77-7-7--77-7-7--72-2-2-27-7-7--77-7-7--77-7-7--79-9-9-|
A--7-7-7--77-7-7--75-5-5--52-2-2-27-7-7--77-7-7--75-5-5--57-7-7-|
E--5-5-5--55-5-5--5--------0-0-0-05-5-5--55-5-5--5--------------|

bridge
e--------------------------|
b--------------------------|
g--------------77-66-44-9--|
D--77-66-44-2--77-66-44-9--|
A--77-66-44-2--55-44-22-7--|
E--55-44-22-0--------------|

and thats it havnt managed the solo yet but ill try the verse isnt quite right
any improvements greatly accepted
Related for Jump On Demand tab
×
Jump On Demand