Song name
# A B C D E F G H I J K L M N O P Q R S T U V W X Y Z

Spunge - Change Of Scene tab

Help us improve GuitareTab! Take a short survey!
-------------------------------------------------------------------------------
			     SPUNGE - Change Of Scene (Intro)
-------------------------------------------------------------------------------

Submitted By: Dave_c2k2
Tabbed by:(Mi Compadre)G-Pimp
Email:garrie_delonge@hotmail.com

Tuning: Standard

e|---------------------------------------------------------------------------|
B|---------------------------------------------------------------------------|
G|---7-7-7------------12-12---12-10-9-10-11----------------------------------|
D|---x-x-x---7-7-7----12-12---12-10-9-10-11----------------------------------|
A|---5-5-5---x-x-x----10-10---10--8-7--8--9----------------------------------|
E|-----------5-5-5-----------------------------------------------------------|
     p p     p p
Related for Change Of Scene tab