Song name
# A B C D E F G H I J K L M N O P Q R S T U V W X Y Z

Spunge - Wake Up Call tab

[Spunge]-Wake Up Call
Tabbed by Merlin Blencowe

Intro and chord progression for all the verses:
--3--3--3--3-----5-5-----3--3----------------------------------------------
--3--3--3--3-----7-7-----5--5----------------------------------------------
--4--4--4--4-----7-7-----5--5----------------------------------------------
--5--5--5--5-----7-7-----5--5----------------------------------------------
---------------------------------------------------------------------------
---------------------------------------------------------------------------
 G               D       C


Chorus with overdrive:
---------------------------------------------------------------------------
---------------------------------------------------------------------------
---------------------------------------------------------------------------
--5--5-----9----10---------------------------------------------------------
--5--5-----9----10---------------------------------------------------------
--3--3-----7-----8---------------------------------------------------------
  G	   B     C
Repeat until he sings "Yeah, yeah!" as follows:
-------------------------------------------------------3---------------
------------------------------------------------------------5---3------
--------------------------------------------------------------------4--
-9--9---10------9--9---7---------------------------------------------5-
-9--9---10------9--9---7--(play twice)-*rest*--------------------------
-7--7----8------7--7---5-----------------------------------------------
 G       B      G      A			       G


Then for the "what I wanna know, what I gotta know is..."
----------------------------------------------------------------------
----------------------------------------------------------------------
----------------------------------------------------------------------
--5---------------4-----2--------------5------------------7-----------
--3-etc-----------4-etc-2-etc----------5-etc--------------7-----------
--3---------------2-----0--------------3------------------5-----------
  G               F#    E	       G		  A
...as accompanyment to the bass line:
Bass	
----------------------------------------------------------------------------
----------------------------------------------------------------------------
----------------------------------------------------------------------------
--7-----5----3----2----0----------------3-----------------5-----------------
Tap to rate this tab
# A B C D E F G H I J K L M N O P Q R S T U V W X Y Z