Song name
# A B C D E F G H I J K L M N O P Q R S T U V W X Y Z

Spunge - Some Suck Some Rock tab

hey this is my first tab so please don't hate me if it sucks. it looks daunting if
your new to playing guitar but if you read on its actually very simple, so have fun!

KEY

Palm Mute              : PM__________
All instruments pause  : ~

Intro

guitar 1 only
E|-------------------------------|
B|-------------------------------|
G|-------------------------------|
D|--0-0-4-5-4-0-4-5-----2-0---0--|
A|------------------0-0----------|
E|--------------------------3----|          x8

                           Verse 1

"Well you got the gangsta' rappers...."
guitar 1+2
E|--------------------|
B|--------------------|
G|--77777777----------|
D|--7777777777775555--|
A|--5555555577775555--|
E|----------55553333--|
PM____________________|        x4

"Boy-bands practising their dance moves...."
(The rhythm changes)  guitar 1+2
E|------------------|         E|-----------------|
B|------------------|         B|-----------------|
G|--7-7-7-7---------|         G|--7-7-7-7--------|
D|--7-7-7-7-7-7-55--|         D|--7-7-7-7-7-555--|
A|--5-5-5-5-7-7-55--|         A|--5-5-5-5-7-555--|
E|----------5-5-33--|  x3     E|----------5-333--|     x1

                        Chorus

".....any, way. Some suck, some rock...."
guitar 1 only
E|-------------------------------|
B|-------------------------------|
G|-------------------------------|
D|--0-0-4-5-4-0-4-5-----2-0---0--|
A|------------------0-0----------|
E|--------------------------3----|     x4

guitar 2 only
E|--------------------|
B|--------------------|
G|--77777777----------|
D|--7777777777xx55xx--|
A|--5555555577xx55xx--|
E|----------55xx33xx--|      x4

                         Verse 2

"Well you've got your...."
guitar 1+2
E|-------------------|
B|-------------------|
G|--77777777---------|
D|--777777777777-55--|
A|--555555557777-55--|
E|----------5555-33--|
PM  ___ ___ ___      |       x4

"Blue metal kitty acting so tough...."
(the rhythm changes) guitar 1+2
E|------------------|         E|-----------------|
B|------------------|         B|-----------------|
G|--7-7-7-7---------|         G|--7-7-7-7--------|
D|--7-7-7-7-7-7-55--|         D|--7-7-7-7-7-555--|
A|--5-5-5-5-7-7-55--|         A|--5-5-5-5-7-555--|
E|----------5-5-33--|  x3     E|----------5-333--|     x1

                          Chorus

"....cool. Some suck, some rock...."
guitar 1 only
E|-------------------------------|
B|-------------------------------|
G|-------------------------------|
D|--0-0-4-5-4-0-4-5-----2-0---0--|
A|------------------0-0----------|
E|--------------------------3----|     x4

guitar 2 only
E|--------------------|
B|--------------------|
G|--77777777----------|
D|--7777777777xx55xx--|
A|--5555555577xx55xx--|
E|----------55xx33xx--|      x4

                      Interlude (doesn't have words)

guitar 1+2
E|------------|              E|------------|
B|------------|              B|------------|
G|--77777777--|              G|--777756~~--|
D|--77777777--|              D|--777756~~--|
A|--55555555--|              A|--555534~~--|
E|------------|              E|------------|
PM--_-__-___--|        x3    PM--____------|       x1

and again...
E|------------|              E|------------|
B|------------|              B|------------|
G|--77777777--|              G|--777756~~--|
D|--77777777--|              D|--777756~~--|
A|--55555555--|              A|--555534~~--|
E|------------|              E|------------|
PM--_-__-___--|        x3    PM--____------|       x1

E|-----------------------------|       
B|-----------------------------|    
G|--7-7-7-7-7-7-7-7-7-7-7-756--|          
D|--7-7-7-7-7-7-7-7-7-7-7-756--|          
A|--5-5-5-5-5-5-5-5-5-5-5-534--|          
E|-----------------------------|           x2

                          Chorus

"....pay. Some suck, some rock...."
guitar 1 only
E|-------------------------------|
B|-------------------------------|
G|-------------------------------|
D|--0-0-4-5-4-0-4-5-----2-0---0--|
A|------------------0-0----------|
E|--------------------------3----|     x4

guitar 2 only
E|--------------------|
B|--------------------|
G|--77777777----------|
D|--7777777777xx55xx--|
A|--5555555577xx55xx--|
E|----------55xx33xx--|      x4

                           Verse 3

"Every now and then...."
guitar 1+2
E|------------------|         E|-----------------|
B|------------------|         B|-----------------|
G|--7-7-7-7---------|         G|--7-7-7-7--------|
D|--7-7-7-7-7-7-55--|         D|--7-7-7-7-7-555--|
A|--5-5-5-5-7-7-55--|         A|--5-5-5-5-7-555--|
E|----------5-5-33--|  x3     E|----------5-333--|     x1

E|------------------|         E|-----------------|
B|------------------|         B|-----------------|
G|--7-7-7-7---------|         G|--7-7-7-7--------|
D|--7-7-7-7-7-7-55--|         D|--7-7-7-7-7-555--|
A|--5-5-5-5-7-7-55--|         A|--5-5-5-5-7-555--|
E|----------5-5-33--|  x3     E|----------5-333--|     x1

                         Chorus x2

and there it is. finito. hope you liked it!
Tap to rate this tab
# A B C D E F G H I J K L M N O P Q R S T U V W X Y Z