Guitaretab - guitar tabs
Song name
# A B C D E F G H I J K L M N O P Q R S T U V W X Y Z

Spunge - Skanking Song tab

Intro

(rhythm)
e|--7--6--7--9--7--6--7--7-----------------|
B|--7--7--9--11--7--7--9--7-----------------|
G|--8--8--9--11--8--8--9--8-----------------|x2
D|--9--8--9--11--9--8--9--9-----------------|
A|--9--6--7--9---9--6--7--9-----------------|
E|--7--6--7--9---7--6--7--7-----------------|

Verse

(rhythm)
e|--7--6--7--9--7--6--7--7-----------------|
B|--7--7--9--11--7--7--9--7-----------------|
G|--8--8--9--11--8--8--9--8-----------------|x2
D|--9--8--9--11--9--8--9--9-----------------|
A|--9--6--7--9---9--6--7--9-----------------|
E|--7--6--7--9---7--6--7--7-----------------|

Chorus

(rhythm)
e|--7--7--9--7------7--7--9----------------|
B|--9--7--11--7------9--7--9----------------|
G|--9--8--11--8------9--8--11---------------|
D|--9--9--11--9------9--9--11---------------|
A|--7--9--9---9------7--9--9----------------|
E|--7--7--9---7------7--7--9----------------|

(lead)
e|-----------------------------------------|
B|------------------------------------------|
G|--9-----11---------9-----11---------------|
D|--9--9--11--9------9--9--11---------------|
A|--7--9--9---9------7--9--9--9-9-9-7-6-----|
E|-----7------7---------7---------------9---|

Verse

(rhythm)
e|--7--6--7--9--7--6--7--7-----------------|
B|--7--7--9--11--7--7--9--7-----------------|
G|--8--8--9--11--8--8--9--8-----------------|x2
D|--9--8--9--11--9--8--9--9-----------------|
A|--9--6--7--9---9--6--7--9-----------------|
E|--7--6--7--9---7--6--7--7-----------------|

Chorus

(rhythm)
e|--7--7--9--7------7--7--9----------------|
B|--9--7--11--7------9--7--9----------------|
G|--9--8--11--8------9--8--11---------------|
D|--9--9--11--9------9--9--11---------------|
A|--7--9--9---9------7--9--9----------------|
E|--7--7--9---7------7--7--9----------------|

(lead)
e|-----------------------------------------|
B|------------------------------------------|
G|--9-----11---------9-----11---------------|
D|--9--9--11--9------9--9--11---------------|
A|--7--9--9---9------7--9--9--9-9-9-7-6-----|
E|-----7------7---------7---------------9---|


Bridge

(Lead)
e|------------------------------------------|
B|------------------------------------------|
G|------------------------------------------|
D|---------------6--------------9-----------|
A|------6-9--7-7---9--9-9-7-6---9-----------|
E|--7-7-----------------------9-7-----------|

[rhythm Guitar starts after above]
[ Tab from: http://www.guitaretab.com/s/spunge/50882.html ]
e|------------------------------------------|
B|------------------------------------------|
G|------------------------------------------|x3
D|---------------6--------------------------|
A|------6-9--7-7---9--9-9-7-6---------------|
E|--7-7-----------------------9-------------|

(Rhythm) 

e|--7--6--7--9--7--6--7--7-----------------|
B|--7--7--9--11--7--7--9--7-----------------|
G|--8--8--9--11--8--8--9--8-----------------|x3
D|--9--8--9--11--9--8--9--9-----------------|
A|--9--6--7--9---9--6--7--9-----------------|
E|--7--6--7--9---7--6--7--7-----------------|


Chorus

(rhythm)
e|--7--7--9--7------7--7--9-----------------|
B|--9--7--11--7------9--7--9-----------------|
G|--9--8--11--8------9--8--11----------------|
D|--9--9--11--9------9--9--11----------------|
A|--7--9--9---9------7--9--9-----------------|
E|--7--7--9---7------7--7--9-----------------|

(lead)
e|------------------------------------------|
B|-------------------------------------------|
G|--9-----11---------9-----11----------------|
D|--9--9--11--9------9--9--11----------------|
A|--7--9--9---9------7--9--9--9-9-9-9-9------|
E|-----7------7---------7--------------------|


[Changes to Power chords]

Verse

(rhythm)
e|-----------------------------------------|
B|------------------------------------------|
G|-----8--9--11-----8--9--------------------|x2
D|--9--8--9--11--9--8--9--9-----------------|
A|--9--6--7--9---9--6--7--9-----------------|
E|--7------------7--------7-----------------|

Chorus

(rhtyhm + lead)

e|------------------------------------------|
B|-------------------------------------------|
G|--9-----11---------------------------------|x2
D|--9--9--11--9------------------------------|
A|--7--9--9---9------------------------------|
E|-----7------7------------------------------|



Outro

(rhythm)
e|--7--7--9--7------7--7--9---------------------|
B|--9--7--11--7------9--7--9---------------------|
G|--9--8--11--8------9--8--11--------------------|x2
D|--9--9--11--9------9--9--11--------9--9--------|
A|--7--9--9---9------7--9--9---------9--9--------|
E|--7--7--9---7------7--7--9---------7--7--------|



(lead)
e|---------------------------------------------|
B|----------------------------------------------|
G|--9-----11---------9-----11-------------------|x2
D|--9--9--11--9------9--9--11--------9--9-------|
A|--7--9--9---9------7--9--9---------9--9-------|
E|-----7------7---------7------------7--7-------|


Related for Skanking Song tab