Song name
# A B C D E F G H I J K L M N O P Q R S T U V W X Y Z

Spunge - Dubstyle tab

Band: Spunge	
Song: Dubstyle
Album: Room for abuse
Tabbed by: Skish

Intro (bass enters at 0:05)
G:--------------------------7~------------------------------7~------|
D:-----9---7---4-7-----9---7---4-7-----9---7---4-7-----9---7---4-7--|
A:-----------5-------------------------------5----------------------|x1
E:-7-----------------7---------------7---------------7--------------|

G:------------------------7~-------------------------------------4---5---6--|
D:---9---7---4-------9---7---4-7-----9------4-7~------9------7-2---3---4----|
A:---------5-----------------------------5h7--------------5h7---------------|x1
E:-7-----------5---7-------------7------------------7-----------------------|

Verse 1
G:-------------------------------------|  
D:-----9------4-7~------9--------------|  
A:---------5h7--------------5h7p5-4----|x1
E:-7------------------7-------------5--|  

|-------------------------------------|
|-----9------4-7~------9--------------|
|---------5h7--------------5h7p5-4----|x5
|---7----------------7-------------5--|

Chorus 1
G:------------------------------------------------------------------|
D:-------------------------------------------------4~---------------|
A:-6-6-6-6-7-7-7-7-----------------6-6-6-6-7-7-7-7-----7~--6~--4~---|x2
E:-----------------7-7-7-7-7-7-7-7----------------------------------|

Verse 2
G:-------------------------------------------------------------------------|
D:-----9------4-7~------9-----------------9------4-7~------9-------5h7p5---|
A:---------5h7--------------5h7p5-4-----------5h7--------------5h7------7--|x1
E:-7------------------7-------------5---7----------------7-----------------|

G:-------------------------------------|
D:-----9------4-7~------9--------------|
A:---------5h7--------------5h7p5-4----|x2
E:---7----------------7-------------5--|

Repeat:

Chorus 1

Bridge
G:------------------------------------------------------------------------|
D:-----9------4-7~------9-----------------9------4-7~------9--------------|
A:---------5h7--------------5h7p5-4-----------5h7--------------5h7p5-4----|x1
E:-7------------------7-------------5---7----------------7-------------5--|

G:------------------------------------------------------------------------|
D:----9------4-7~------9-----------------9-----------------9--------------|
A:--------5h7--------------5h7p5-4-----------5h7p5-4-----------5h7p5-4----|x1
E:--7----------------7-------------5---7-------------5---7-------------5--|

Chorus 3
G:-------------------------------------------------------------------|
D:---------------------9------4-7~------------------4~---------------|
A:-6-6-6-6-7-7-7-7---------5h7------6-6-6-6-7-7-7-7-----7~--6~--4~---|x1
E:-----------------7-------------------------------------------------|

G:------------------------------------------------------------------|
D:-------------------------------------------------4~---------------|
A:-6-6-6-6-7-7-7-7-----------------6-6-6-6-7-7-7-7-----7~--6~--4~---|x1
E:-----------------7-7-7-7-7-7-7-7----------------------------------|

Verse 3
G:------------------------------------------------------------------------|
D:-----9------4-7~------9-----------------9------4-7~------9-------5h7p5--|
A:---------5h7--------------5h7p5-4-----------5h7--------------5h7------7-|x1
E:-7------------------7-------------5---7----------------7----------------|

G:------------------------------------------------------------------------|
D:-----9------4-7~------9-----------------9------4-7~------9-------5h7p5--|
A:---------5h7--------------5h7p5-4-----------5h7--------------5h7------7-|x1
E:---7----------------7-------------5---7----------------7----------------|

Chorus 4
G:-------------------------------------------------------------------|
D:---------------------9------4-7~------------------4~---------------|
A:-6-6-6-6-7-7-7-7---------5h7------6-6-6-6-7-7-7-7-----7~--6~--4~---|x1
E:-----------------7-------------------------------------------------|

(Note 1111=Two elevens)
G:--------------------------------------------------1111~-----99~-----|
D:--------------------------------------------------------------------|
A:-6-6-6-6-7-7-7-7-----------------6-6-6-6-7-7-7-7-9---------7--------|x1
E:-----------------7-7-7-7-7-7-7-7------------------------------------|

G:--88~-----66~-----|
D:------------------|
A:-6-------4--------|x1
E:------------------|

Outro
G:--------------------------7~------------------------------7~------|
D:-----9---7---4-7-----9---7---4-7-----9---7---4-7-----9---7---4-7--|
A:-----------5-------------------------------5----------------------|x1
E:-7-----------------7---------------7---------------7--------------|

G:--------------------------7~------|  |------|
D:-----9---7---4-7-----9---7---4-7--|  |------|
A:-----------5----------------------|x4|------|x1
E:---7---------------7--------------|  |-7----|

Tap to rate this tab
# A B C D E F G H I J K L M N O P Q R S T U V W X Y Z