Song name
# A B C D E F G H I J K L M N O P Q R S T U V W X Y Z

Spunge - Nothimg To Hide tab

Artist: [spunge]
Song: Nothing to hide
Album: Room for abuse
Tabbed by: Skish

Intro(bass enter at 0:03)
G:--------------------------------------------------|
D:---4---4---4---4---4---4---4---4---4---4---4---4--|
A:--------------------------------------------------|x1
E:--------------------------------------------------|
Verse 1
G:------------------  ------------------  --------------66--|
D:------------------  -443311---44--66--  -443311---44------|
A:-------1122224444-x4-------442---4----x3-------442---4----|x1
E:-222222-----------  ------------------  ------------------|
Chorus 1
G:---8------------------------------|
D:---------------------------6-643--|
A:-66------222-----44444---44-4-----|x4
E:----------------------------------|
Verse 2
G:------------------  --------------66--  ----------44--66--|
D:--------------346-  -443311---44------  -443311-----------|
A:-------1122224----x4-------442---4----x1-------442---4----|x3
E:-222222-----------  ------------------  ------------------|
Repeat:
Chorus 1
Guitar Solo
G:------------------  ------------------  ------------------  ----------44--66--|
D:------------------  --------------346-  -443311---44--66--  -443311-----------|
A:-------1122224444-x1-------1122224----x3-------442---4----x3-------442---4----|x1
E:-222222-----------  -222222-----------  ------------------  ------------------|
Chorus 3
G:---8-------------------------------8---------------------------------|
D:---------------------------6-643-------------------------------------|
A:-66------222-----44444---44-4----66------222-----44444---4-4--44--5--|x1
E:---------------------------------------------------------------------|

G:---8------------------------------|
D:---------------------------6-643--|
A:-66------222-----44444---44-4-----|x2
E:----------------------------------|
Bridge(11=eleven)
G:------------------------------------------------------11-----11-----11-----11-|
D:--------------------------------------------------1111---1111---1111---1111---|
A:-666666664444444422222222222222446666666644444444-----------------------------|x1
E:------------------------------------------------------------------------------|

G:---8-------6-----6-4--------------|
D:------------------------4--446-4--|
A:-66------44-----------------------|x4
E:----------------------------------|
Verse 3
G:------------------  ------------------  --------------66--  ----------44--66--|
D:--------------346-  ------------------  -443311---44------  -443311-----------|
A:-------1122224----x4-------1122224444-x1-------442---4----x3-------442---4----|x1
E:-222222-----------  -222222-----------  ------------------  ------------------|
Chorus 4
G:---------------------------------------------------------------------  -----------|
D:---------------------------------------------------------------------  -----------|
A:-666666662222222244444444444444446666666622222222444444444-4--44--5--x2--6~~------|x1
E:---------------------------------------------------------------------  -----------|
Tap to rate this tab
 
# A B C D E F G H I J K L M N O P Q R S T U V W X Y Z